PrimaNota.ru - самый крупный в мире бесплатный архив песенных текстов, аккордов, табулатур и нот


Pink Mountaintops - Plastic Man Youre The Devil - таба, видео

Регистрация Запомнить меня
Войти через:  Facebook Google Twitter Vk Yandex Mail.ru

Pink Mountaintops - Plastic Man Youre The Devil - таба, видео

Печатать
Просмотров: 101
Уроки эстрадного вокала в Санкт-Петербурге
-----------------------------------------------------------------------------
                             Plastic Man, You're The Devil - Pink Mountaintops
-------------------------------------------------------------------------------
Tabbed by: wlffmn27
Email: wlffmn27@aol.com

Tuning: Standard
Capo: 1st fret

e|---------------------------------------------------------------------------|
B|---------------------------------------------------------------------------|
G|--4--6--7--6--4--2--4--7---------------------------------------------------|
D|---------------------------------------------------------------------------|
A|---------------------------------------------------------------------------|
E|--0--0--0--0--0--0--0--0---------------------------------------------------|

e|---------------------------------------------------------------------------|
B|---------------------------------------------------------------------------|
G|--4--6--7--6--4--2---------------------------------------------------------|
D|--------------------2------------------------------------------------------|
A|---------------------------------------------------------------------------|
E|--0--0--0--0--0--0--0------------------------------------------------------|

E  (At the end of every measure, pull off the 2nd fret of the A string)   8x

E                                                 D         E
The suckers are playing with corpses
E           A                E
To the marching drum
E                                D           E
Flying low in silver bombers
E                                     A                    E
Under the heat from our troubled sun
E                                                        D           E
The men with machines and the filth parade
E                          A        E
Get wise to your sanity
E                                    D            E
Yeah, Yeah you can't phase me
E                        A              E
I'm living outside I'm free
E                                    D            E
Yeah, Yeah you can't phase me
E                          A            E
I'm living outside I'm free

E (4x)

E                                       D    E
Plastic man, you're the devil
E                  A           E
And satan is your son
E            D  E
Axis of evil
E                                      A               E
We won't smoke that shit your on
E                   D        E
Mary can't save you
E                             A                    E
And Jesus won't take your hand
E                               D      E
To your land of salvation
E                A               E
From the fires of hell

E (8x)

E                                   D    E
So bad news for you baby
E                                           A                  E
We're through with your wartime plans
E                                 D        E
The newsmen and orderlies
E                                 A                  E
Have cleansed you of their hands
E                                 D         E
And I wish I could save you
E                                   A                         E
Cause goddamn I'm a peace loving man
E                                               D   E
But plastic man you're the devil
E                              A              E
You just couldn't understand
E                                                D    E
Yeah plastic man you're the devil
E                              A               E
You just wouldn't understand

E (4x)

E                                                  D         E
The suckers are playing with corpses
E           A                E
To the marching drum
E                                D           E
Flying low in silver bombers
E                                     A                    E
Under the heat from our troubled sun
E                                                        D           E
The men with machines and the filth parade
E                          A        E
Get wise to your sanity
E                                    D            E
Yeah, Yeah you can't phase me
E                        A              E
I'm living outside I'm free
E                                    D            E
Yeah, Yeah you can't phase me
E                          A            E
I'm living outside I'm free

E (3x)

end on E


Sorry about the chords and lyrics not lining up. I couldn't figure out how to fix it.
Добавлено: 28.03.2012
Другие материалы по этой песне:
  • Аккорды и текст

Страница создана 28.03.2012
http://primanota.ru/pink-mountaintops/plastic-man-youre-the-devil-chords.htm
Привет, Гость.
Предлагаем пройти революционный курс по гитаре.
Подарок от PrimaNota.Ru, забирай!