PrimaNota.ru - самый крупный в мире бесплатный архив песенных текстов, аккордов, табулатур и нот


Pink Floyd - Wish You Were Here Live - таба, видео

Регистрация Запомнить меня
Войти через:  Facebook Google Twitter Vk Yandex Mail.ru

Pink Floyd - Wish You Were Here Live - таба, видео

Печатать
Просмотров: 220
WISH YOU WERE HERE  (Live)

As recorded by Pink Floyd
(From the 1995 Album PULSE)

Words and Music by David Gilmour & Roger Waters

Transcribed by Slowhand


Gtr I (E A D G B E) - 'Tim Renwick - Acoustic 12-string Guitar'
Gtr II (E A D G B E) - 'David Gilmour - Acoustic Guitar'


                               Intro
  Q=64
  N.C.                          Em7                    G
 4/4
  Gtr I (Ac. 12-str. Gtr.)
  Wx4          H    Q  S S E    Q  E S S +E  S S E E   E. S E E +E  E S S E
|------------|---------------||----3-3-3-(3)---3-----|----3---3-(3)----------|
|------------|---------------||----3-3-3-(3)-3-3-----|----3---3-(3)----------|
|------------|---------------||----0-0-0-(0)-0---0---|----0---0-(0)----------|
|------------|-------------0-||-2------------------2-|-0------------------0--|
|------------|---------0h2---||----------------------|----------------0h2----|
|------------|---------------||----------------------|------3-------3--------|


  Em7                    G                        Em7
  Q  E S S +S  S E E E   E. S E E +S  S E S S E   E E E S S S S E E E
|----3-3-3-(3)-3-------|----3---3-(3)-3---------|-----3-3-3---3--------|
|----3-3-3-(3)-3-3-----|----3---3-(3)-3---------|-----3-3-3-3-3--------|
|----0-0-0-(0)---0-0---|----0---0-(0)-----------|---0-0-0-0-0----------|
|-2------------------2-|-0--------------------0-|-2-------------2-0----|
|----------------------|------------------0h2---|-------------------2--|
|----------------------|------3---------3-------|----------------------|


  A7sus4
  E E E S S +S  S S S S S E
|-----3-3-------3---3-------|
|-----3-3-------3-3-3-------|
|-----0-0---------0---------|
|---2---------------------0-|
|-0-------0-(0)-------0h2---|
|---------------------------|


  Em7                       A7sus4
  E. S E. S +S  S E  E  E   E E E E +S  S S S S S S S
|------3--3-(3)-3---------|-----3-------3-------------|
|------3--3-(3)-3---------|-----3-------3---3---------|
|----0-0--0-(0)-----------|-----0-------0---0-----0-0-|
|-2---------------2--0----|---2-----------2---0---0-0-|
|-------------------(0)-2-|-0-----0-(0)-------0h2-----|
|-------------------------|---------------------------|


  G                                          Em7
                                   Gtrs I, II (Ac. Gtr.)
  E. S E E E E S S E   E E S S E E E S S E   E. S Q  E S S E E
|------3---3-----3---|-3-----3---3---------|----3-3--3---3-----|
|------3---3---3-3---|-3---3-3---3---------|----3-3--3---3-----|
|------0---0---0-0---|-0---0-0---0---------|----0-0--0-0-0-0---|
|----0---------0-----|-----0-------------0-|-2----2----2-----2-|
|--------------------|---------------0h2---|-------------------|
|-3------3---3-----3-|---3-----3---3-------|-------------------|


  G                     Em7                   G
  E. S E. S E E S S E   Q  Q  +S  S S S E E   E. S E S S S S E S S E
|----3-3--3-----------|----3--(3)-3---3-----|----3-3---3--------------|
|----3-3--3-3---------|----3--(3)-3-3-3-----|----3-3-3-3-3------------|
|------0--0-0---------|----0--(0)---0---0---|------0-0---0------------|
|-0----0----0-------0-|-2--2--(2)---------2-|-0----------0-0-------0--|
|---------------0h2---|---------------------|--------------0---0h2----|
|-------------3-------|---------------------|----------------3--------|


  Em7                   A7sus4              Em7
  E. S E. S S S E E E   Q  Q  E S S S S E   E S S Q  S S E E E
|----3-3--3---3-------|----3--3---3-------|-----3-3----3-------|
|----3-3--3-3-3-------|----3--3-3-3-------|-----3-3--3-3-------|
|----0-0----0---------|----2--2-2---------|---0-0-0--0---------|
|-2----2--------2-0---|----2------------0-|-2-----2------2-0---|
|-------------------2-|-0--0--------0h2---|------------------2-|
|---------------------|-------------------|--------------------|


  A7sus4               G             C     G
  Q  Q  E. S S S S S   E E Q  E. S S S E   E E Q  S S E S S E
|----3--3--3---3-----|-----3-----3-----3-|-----3----3---------||
|----3--3--3-3-3-3-0-|-----3-----0-0-1-1-|-3---3--3-3---------||
|----2--2--2-2---2-0-|-----0-------0-0-0-|-0---0--0-----------||
|----2--2--2-------0-|-----0-------0-2-2-|-0---0------------0-||
|-0--0--0------------|---2-2--2--------3-|-2---2--------0h2---||
|--------------------|-3-3-3--3----------|-3-3--------3-------||


 Intro Solo
  Em7                           G
  Gtr I
  E.   S Q  E   S S  E  E       E. S  E.       S E E S S E
|------3-3--3-----3-----------|----3--3--------3-----------|
|------3-3--3-----3-----------|----3--3--------3-3---------|
|------0-0--0---0-0--0--------|-------0--------0-0---------|
|-2------2------2-------2-----|-0-----0----------0-------0-|
|-----------------------------|----------------------0h2---|
|-----------------------------|--------------------3-------|
|
| Gtr II
|               ~~~~~~~~
|                       |-3-|
| E  S S Q  S S E   +E  S S S   Q    +E  a a S S H
|-----------------------------|----------------------------|
|--------3--5---3---(3)-------|----------------------------|
|----2s4------4---------4p2p0-|----------------------------|
|-----------------------------|-0----(0)-------0-0---------|
|-----------------------------|----------0-1-2-------------|
|-----------------------------|----------------------------|


  Em7
  Q     Q     +S S  S  S   E E
|-------3-----(3)3-----3---------|
|-------3-----(3)3--3--3---------|
|-------0-----(0)---0------0-----|
|-2-----2-----(2)------------2---|
|--------------------------------|
|--------------------------------|
|
| E a e e a E  E    E    a E S S
|---3s5-3------------------------|
|---3s5-3-3s5--3---(3)---3s5-3p0-|
|---------2s4--2p===0----2s4-2p0-|
|--------------------------------|
|--------------------------------|
|--------------------------------|


  G                         Em7
   E. S E S S S S E S S E   E.   S E.     S  S  S E              E   E
|-----3-3---3-------------|------3-3------3-----3----------------------|
|-----3-3-3-3-3-----------|------3-3------3--3--3----------------------|
|-------0-0---0-----------|------0-0---------0-------------------------|
|--0----------0-0-------0-|-2------2--------------2--------------0-----|
|---------------0---0h2---|------------------------------------------2-|
|-----------------3-------|--------------------------------------------|
|
|  H.               Q       E  S S S  S E   +E.     a    +T  +T  S S e
|-------------------------|--------------------------------------------|
|-------------------------|--------3----5---(5)-----5b6==(5)r(5)p3---3-|
|-/4----------------------|----2s4---------------------------------4---|
|-/5----------------------|-----------x--------------------------------|
|-------------------------|--------------------------------------------|
|-------------------------|--------------------------------------------|


  A7sus4
  Q  Q       E   S S  S  S E
|----3-------3-----3----------|
|----3-------3---3-3----------|
|----2-------2---2------------|
|----2---------------------0--|
|-0--0----------------0h=2----|
|-----------------------------|
|
| Q  E   S S e   E   +Q
|-----------------------------|
|--------3-5------------------|
|----4b6-----4b6-2---(2)------|
|-----------------------------|
|-----------------------------|
|-----------------------------|


  Em7                         A7sus4
  E S S Q     S S E   E   E   Q   Q           E. S S S S S
|-----3-3-------3-----------|-----3-----------3--3---3-----|
|-----3-3-----3-3-----------|-----3-----------3--3-3-3-3-0-|
|---0-0-0-----0-------------|-----2-----------2--2-2---2-0-|
|-2-----2---------2---0-----|-----2-----------2--2-------0-|
|-------------------------2-|-0---0-----------0------------|
|---------------------------|------------------------------|
|
|                                             ~~
| E S S S S E E   e   S S e   Q  +E  S    +S  H
|---------------------------|------------------------------|
|-------3---5-5---5b6-5p3-5-|------------------------------|
|---2s4---4-----------------|-2--(2)-4pb6r(4)-2------------|
|---------------------------|------------------------------|
|---------------------------|------------------------------|
|---------------------------|------------------------------|


                            1st & 2nd Verses
  G                          C/G
  Q   S  S E   Q   S S E     E E E S S E E S S E
|-3---3--3-----3---3-3-3-||--0---0-0-0-0-0-0-0-0-|
|-3---3--3-----0---3-3-3-||o-1---1-1-1-1-1-1-1-1-|
|-0---0--0-----0---0-0-0-||--0---0-0-0-0-0-0-0-0-|
|-0---0--0-----0---0-0-0-||--2---2-2-2-2-2-2-2-2-|
|-2---2--2-----2---2-2-2-||o-3---3-3-3-3-3-3-3-3-|
|-3---3--3-3---3---3-3-3-||--3-3-3-3-3-3-3-3-3-3-|
|
| E E E.     S E E S S E     Q   E S S Q   Q
|-----3------3---3---3---||--0---0-----0---------|
|-----3------3---3-0-0-0-||o-1---1---1-1---------|
|-----0------0---0-0---0-||--0---0-0-0-0---------|
|---0-0----------0-----0-||--2---2-2---2---------|
|---2-2--------2---------||o-3---3-----3---3-----|
|-3---3--------3---------||--3---------3---------|


  D/F#
   E  E S S S S E   E S S E
|--2--2-2-2-2-2-2---2-2-2-2-|
|--3--3-3-3-3-3-3---3-3-3-3-|
|--2--2-2-2-2-2-2---2-2-2-2-|
|--0--0-0-0-0-0-0---0-0-0-0-|
|--0--0-0-0-0-0-0---0-0-0-0-|
|--2--2-2-2-2-2-2---2-2-2-2-|
|
|  Q    S S E   S S E E   E
|-------2-0-0---3p2---------|
|--3----3---3---3---3-----3-|
|--2----2---2---2---2-2---2-|
|--0------------0-----0-----|
|--0------------------0-----|
|-(2)-----------------------|


  Am                           G
  Q    S S S S E E   S S S S   E E   S S S S E E S S E
|-0----0-0-0-0-0-0---0-0-----|-3-3---3-3-3-3-3-3-3-3-3-|
|-1----1-1-1-1-1-1---1-1-1---|-3-3---3-3-3-3-3-3-3-3-3-|
|-2----2-2-2-2-2-2---2-2-2-0-|-0-0---0-0-0-0-0-0-0-0-0-|
|-2----2-2-2-2-2-2---2-2-2-0-|-0-0---0-0-0-0-0-0-0-0-0-|
|-0----0-0-0-0-0-0---0-0-0---|-2-2---2-2-2-2-2-2-2-2-2-|
|----------0-0-0-0-----------|-3-3---3-3-3-3-3-3-3-3-3-|
|
| E. S E   S S E S S S S E     E S S E   E   E E S S E
|----0-------0---------------|-----3-3---------3-------|
|------1---0---0-----0h1-----|-------0---------0-------|
|-2--------2-------2-2-------|---0---0---------0-------|
|-2--------2-----2-2-2---2---|---0---0---------0-----0-|
|-0--------------------------|---2-----------2---0h2---|
|----------------------------|-3---------3---3---------|


  D        D/F#
  E. S S S S S Q     S S E
|-2--2-2-2-2-2-2-----2-2-2-|
|-3--3-3-3-3-3-3-----3-3-3-|
|-2--2-2-2-2-2-2-----2-2-2-|
|-0--0-0-0-0-0-0-----0-0-0-|
|----------0-0-0-----0-0-0-|
|----------2-2-2-----2-2-2-|
|
| Q    S S E   S S E E   E
|------2-0-0---3-----2-----|
|-3----3---3-----3-3-----3-|
|-2----2---2-----2-2-----2-|
|-0----------------0-----0-|
|--------------------------|
|--------------------------|


  C/G                        Am
  E.   S S S E   E   S S S S E   E S S S S S S E S S E E
|-0----0-0-0-0---0---0-0-0-0-0-|-0-0-0-0-0-0-0-0-0-0-0-0--|
|-1----1-1-1-1---1---1-1-1-1-1-|-1-1-1-1-1-1-1-1-1-1-1-1--|
|-0----0-0-0-0---0---0-0-0-0-2-|-2-2-2-2-2-2-2-2-2-2-2-2--|
|-2----2-2-2-2---2---2-2-2-2-2-|-2-2-2-2-2-2-2-2-2-2-2-2--|
|-3----3-3-3-3---3---3-3-3-3-0-|-0-0-0-0-0-0-0-0-0-0-0-0--|
|-3----3-3-3-3---3---3-3-3-3---|--------------------------|
|
| E  S S S S S S S S S S E   E   E S S S S E   H
|--------3---------------------|-----0-----0--------------|
|------1---1-------------------|-------0---1--------------|
|----0---------------0---------|---------2-2---2----------|
|-2----------0---0h2---2-------|---2-------2--------------|
|-3------------3---------3---2-|-0------------------------|
|------------------------------|--------------------------|


  1.                        2.
  G                          G
  Q   S  S S S Q   S S E     E E S E.     +E  E S S E
|-3---3--3-3-3-3---3-3-3--||-3-----3------(3)---------||
|-3---3--3-3-3-3---3-3-3-o||-3-----3------(3)---------||
|-0---0--0-0-0-0---0-0-0--||-0---0-0------(0)---------||
|-0---0--0-0-0-0---0-0-0--||-0---0------------------0-||
|-2---2--2-2-2-2---2-2-2-o||-2---2--------------0h2---||
|-3---3--3-3-3-3---3-3-3--||-3-3-3------------3-------||
|
| E E E.     S E E S S E     Q   S S  S S  E  E S S E
|-----3------3---3---3----||-------3----3-------------||
|-----3------3---3-0-0-0-o||-------0--0-0--0----------||
|-----0------0---0-0---0--||----------0----0----------||
|---0-0----------0-----0--||---------------0--------0-||
|---2-2--------2---------o||--------------------0h2---||
|-3---3--------3----------||-3---3------------3-------||


 Guitar Solo
  Em7
  E.          S  Q  E        S    S  E  E
|-------------3--3--3-------------3--------------|
|-------------3--3--3-------------3--------------|
|----------------0-----------0-------0-----------|
|-2-------------------------------------2--------|
|------------------------------------------------|
|------------------------------------------------|
|
| |----3----|       |-----3-----|
| E   E     e    Q  E  E        e    E  T  +T  S
|----------10---10-------------10---10-----------|
|----10b12------------10b12============10r(10)-8-|
|------------------------------------------------|
|------------------------------------------------|
|------------------------------------------------|
|------------------------------------------------|


  G
  Q           E  S     S S S  E S S E
|----------------------3--------------|
|----------------------3---3----------|
|----------------------0---0----------|
|-0-----------0------------0--------0-|
|-------------2-----------------0h2---|
|-------------3--3------------3-------|
|
| |---3----|
| E  E     E  E  s     S E    e Q
|---10b12-10-10-----------------------|
|---------------10b12-10-8---10-------|
|-------------------------------------|
|-------------------------------------|
|-------------------------------------|
|-------------------------------------|


  Em7                                              G
  Q           Q          +E  S S E  E              Q       S S E     +S  S  E S S E
|-------------3----------(3)---3-3---------------|-----------3-----------------------|
|-------------3----------(3)-3-3-3---------------|---------3-3-----------3-----------|
|-------------0----------(0)-0---0---------------|---------0-0-----------0-----------|
|-2---------------------------------2------------|-0-------0-------------0--------0--|
|------------------------------------------------|----------------------------0h2----|
|------------------------------------------------|-------------3-----(3)----3--------|
|
|                                                                        ~~
| |---3----|  |---3----|
| E  E     e  E  E  a  E  Q      E  T      +T  S   S S S S E   S a S +S  E.   Q
|---------10-10-10-10s12-10----------------------|-----------------------------------|
|---10b12--------------------------10pb12r(10)p8-|-7---------------------------------|
|------------------------------------------------|---7-7---7---9---------7-----------|
|------------------------------------------------|-------9-------7h9-(9)-------------|
|------------------------------------------------|-----------------------------------|
|------------------------------------------------|-----------------------------------|


  Em7                                     A7sus4
  H            +S    S a  E    E    a E   Q                 E.        S S S E S   S E
|---------------------------------------|-----------------------------3---3-----------|
|---------------------------------------|-------------------3---------3---3-3---------|
|--------------------0------------------|-------------------2---------2---2-2---------|
|-2------------(2)-----0h=2----0--------|-------------------2---------------2-------0-|
|-----------------------------------0h2-|-0-----------------------------------0h==2---|
|---------------------------------------|---------------------------------------------|
|
|                                                                       ~
| S  S  e E  e  E         S S  S E.       S  T      +T  S S e   S     S Q     S a S e
|---------------------------------------|----------------------------10---------------|
|-------8-8-10-10b12r====10p8-10--------|---10pb11r(10)p8---8--10b12----8-----------8-|
|---(7)--------------------------9------|-----------------9---------------------7s9---|
|---------------------------------------|---------------------------------------------|
|---------------------------------------|---------------------------------------------|
|---------------------------------------|---------------------------------------------|


  Em7
   H                           +S  S  S S  E     E
|----------------------------------3----3----------|
|----------------------------------3--3-3----------|
|----------------------------------0--0-0----------|
|--2---------------------------(2)----2----0-------|
|------------------------------------------------2-|
|--------------------------------------------------|
|
|  E      E  +S   T  +T  S  S   E     S S  e     e
|--------10-(10)-----------------------------------|
|-10b12==========10r(10)p8------8----10p8-10b12-10-|
|--------------------------(9)---------------------|
|--------------------------------------------------|
|--------------------------------------------------|
|--------------------------------------------------|


  A7sus4
   Q          Q             +S  S E +S  S S S
|-------------3-------------(3)-3-3-(3)-3-----|
|-------------3-------------(3)-3-3-(3)-3-3-0-|
|-------------2-------------(2)---2-(2)---2-0-|
|-------------2-------------(2)---2-(2)---2-0-|
|--0------------------------------------------|
|---------------------------------------------|
|
|                            ~~~
|  E      E  +S   T  +T   e  H
|--------12-(12)------------------------------|
|-12b14==========12r(12)p10-10----------------|
|---------------------------------------------|
|---------------------------------------------|
|---------------------------------------------|
|---------------------------------------------|


                              3rd Verse
  G                            C/G
  E.   S Q    +E  S S S S E    Q  Q     +E  E S S S S
|------3-3----(3)---3---3---||-0--0-----(0)-0-0-0-0-0---|
|------0-0----(0)-0-0---0-0-||-1--1-----(1)-1-1-1-1-1---|
|--------0----(0)-0-0---0-0-||-0--0-----(0)-0-0-0-0-0---|
|--------0----(0)-0---0---0-||-2--2-----(2)-2-2-2-2-2---|
|---------------------2---2-||-3--3-----(3)-3-3-3-3-3---|
|-3-------------------3---3-||-3--3-----(3)-3-3-3-3-3---|
|
| E  E   E. S  E  E   S S E    Q  E S S  E  E E   E
|--------3--3-----3-----3---||----0---0-----------------|
|--------3--3-----3---0-0-0-||-1--1-1-1--1----1---------|
|--------0--0-----0---0---0-||-0--0-0-0--0--0-0---0-----|
|----0---0--------0-------0-||-2--2-2----2--2-2---2-----|
|----2---2-----2------------||-3---------3--3-3---3-----|
|-3------3-----3------------||--------------------------|


  D/F#
  E E  S  S S S E E S S E
|-2-2--2--2-2-2-2-2-2-2-2-|
|-3-3--3--3-3-3-3-3-3-3-3-|
|-2-2--2--2-2-2-2-2-2-2-2-|
|-0-0--0--0-0-0-0-0-0-0-0-|
|-0-0--0--0-0-0-0-0-0-0-0-|
|-2-2--2--2-2-2-2-2-2-2-2-|
|
| E E +S  S S S Q   Q
|-2-------3-3-2-2---------|
|-3-3-(3)-3-3---3---3-----|
|-2-2-(2)-------2---2-----|
|-0-0-(0)-------0---0-----|
|-------------------------|
|-------------------------|


  Am                             G
  E    E S E.     S E.    S  S S S   E E S E S  E  S S S S E
|-0----0-0-0------0-0-----0--0-0-3-|-3-3-3-3-3--3--3-3-3-3-3--|
|-1----1-1-1------1-1-----1--1-1-3-|-3-3-3-3-3--3--3-3-3-3-3--|
|-2----2-2-2------2-2-----2--2-2-0-|-0-0-0-0-0--0--0-0-0-0-0--|
|-2----2-2-2------2-2-----2--2-2-0-|-0-0-0-0-0--0--0-0-0-0-0--|
|-0----0-0-0------0-0-----0--0-0-2-|-2-2-2-2-2--2--2-2-2-2-2--|
|--------------------------------3-|-3-3-3-3-3--3--3-3-3-3-3--|
|
| S E.   E    S S E    E +S  S S S   Q   Q     +E  E   S S E
|----------------------------0-0-3-|---------------3-----3----|
|---1----1------1-1----1-(1)-1-1-3-|-0---0-----(0)-0---0-0-0--|
|-2-2----2----2-2-2----2-(2)-2-2---|-0---0-----(0)-0---0-0-0--|
|-2-2----2----2---2----2-(2)-------|-0---0-----(0)-----0---0--|
|-0---------------0----------------|-2------------------------|
|----------------------------------|-3------------------------|


  D/F#                C/G                        Am
  Q  S  S E   E E E S S   Q  S  E.   E   E   S S E
|-2--2--2-----2-2-2-2-0-|-0--0--0----0---0---0-0-0-|
|-3--3--3-----3-3-3-3-1-|-1--1--1----1---1---1-1-1-|
|-2--2--2-----2-2-2-2-0-|-0--0--0----0---0---0-0-2-|
|-0--0--0-----0-0-0-0-2-|-2--2--2----2---2---2-2-2-|
|-0--0--0-----0-0-0-0-3-|-3--3--3----3---3---3-3-0-|
|-2--2--2-2---2-2-2-2-3-|-3--3--3----3---3---3-3---|
|
| Q  E.     S E E E S S   Q  E.    S S S S S E   E
|-2---------2-----------|----------0---------------|
|-3--3------3---3-3---1-|-1--1-----1---1---1-------|
|-2--2------2-2-2-2-0-0-|-0--0-----0-0---0---------|
|-0--0--------0-0-0-0---|-2--2---------------------|
|-0---------------------|-3------------------3---2-|
|-----------------------|--------------------------|


  Q        S  S S S  E  S S S S S S
|-0--------0--0---0--0--0-0-0-0-0-0--|
|-1--------1--1---1--1--1-1-1-1-1-1--|
|-2--------2--2---2--2--2-2-2-2-2-2--|
|-2--------2--2---2--2--2-2-2-2-2-2--|
|-0--------0--0-0-0--0--0-0-0-0-0-0--|
|------------------------------------|
|
| S S S S +S  S S S +H
|---------------0--------------------|
|-------0-(0)-----1-(1)--------------|
|-----2------------------------------|
|---2---------2----------------------|
|-0----------------------------------|
|------------------------------------|


                            Interlude
  G                          Em7                     G
  Q   S  E.     E E S S E    Q  E. S +S  S S S E E   Q  E S S S S E S S E
|-3-----------------------||----3--------3---3-----|------------0----------|
|-3------3------3---------||----3--3-(3)-3-3-3-----|----3---3---0----------|
|-0---0--0------0---------||----0--0-(0)---0---0---|----0-0-0-0-0----------|
|-0---0--0------0-------0-||-2-------------------2-|-0--0-0---0---------0--|
|-2---2-------------0h2---||-----------------------|----2-----------0h2----|
|-3---3-----------3-------||-----------------------|----3---------3--------|
|
| Q  +S  S  S S E E S S E    Q  E. S +S  S S S E E   Q  E S S S S E S S E
|--------3----3-----------||----3--------3---3-----|------------0----------|
|--------0--0-0-0---------||----3--3-(3)-3-3-3-----|----3---3---0----------|
|-0--(0)----0---0---------||----0--0-(0)---0---0---|----0-0-0-0-0----------|
|-0--(0)----------------0-||-2-------------------2-|-0--0-0---0---------0--|
|-2--(2)------------0h2---||-----------------------|----2-----------0h2----|
|-3--(3)----------3-------||-----------------------|----3---------3--------|


  Em7                       G                           Em7
  Gtrs I, II
  E S S E S S +S  E S E E   E S S +S  S S S E E S S E   E S S Q  +S  S E E E
|-----3-3---3-(3)---3-----|---3-3-(3)-----------------|-----3-3--(3)-3-------|
|---3-3-3-3-3-(3)-3-3-----|---3-3-(3)-----------------|---3-3-3--(3)-3-------|
|---0-0-0-0-0-(0)-0-0-0---|---0-----------------------|---0-0-0--(0)---------|
|-2---------------------2-|-0-----------------------0-|-2-2---2--(2)---2-0---|
|-------------------------|-------------0-1-2---0h2---|--------------------2-|
|-------------------------|-----------3-------3-------|----------------------|


  A7sus4                    Em7                   A7sus4
  E S S E S S S S E S S E   Q  E. S +S  S E E E   E S S E S S S S E +S  S S S
|-----3-3---3---3---------|----3--3-(3)-3-------|-----3-3---3---3-3-(3)-3-----||
|---3-3-3-3-3-3-3-3-------|----3--3-(3)-3-------|---3-3-3-3-3---3-3-(3)-3-3-0-||
|---2---2-2-2-2-2-2-------|----0--0-(0)---------|---2-2-2-2-2---2-2-(2)---2-0-||
|---2-----2---2---2-----0-|-2-------------2-0---|---2-----2-------2-(2)-----0-||
|-0-----------------0h2---|-------------------2-|-0---------------------------||
|-------------------------|---------------------|-----------------------------||


 Outro Solo
  G                     C     G
  Gtr I
  Q     E   S S E E   S S E   Q       E.       S E E   S S  E
|-3-----3-----3-------------|---------3--------3--------------|
|-0-----0-----0-0-----0-1-1-|-0-------0--------0-0------------|
|-0-----0---0-0-0-----0-0-0-|-0-------0----------0------------|
|-0-----0---0-0-0-----0-2-2-|-0------------------0----------0-|
|-2-----------------------3-|-2------------------------0h2----|
|-3---------------3---------|-3--------------------3----------|
|
| Gtr II
|                                                        ~~
| E S S S S S S e S S S s E   S S S S S  S S a S e S S S E.
|---------------------------|---------------------------------|
|---3---3-5-----3-3---3-5---|-----3---3--5-------3-3---3-5----|
|-----4-------4-----4-------|---4---4--------2s4-----4--------|
|---------------------------|---------------------------------|
|---------------------------|---------------------------------|
|---------------------------|---------------------------------|


  Em7
  Q     E S S +E   S S  E  E
|-------3-3-3-(3)----3-------|
|-------3-3-3-(3)--3-3-------|
|-------0-0-0-(0)--0----0----|
|-2------------------------2-|
|----------------------------|
|----------------------------|
|
| E E   e e    S S E   +Q
|---5b7-5-3------------------|
|--------------5p3-5---(5)---|
|----------------------------|
|----------------------------|
|----------------------------|
|----------------------------|


  G                              Em7
  E.       S E E   +E  E S S E   Q    E  S S +S     S    E     E         E
|----------3---3---(3)---------|------3--3-3-(3)----3------------------------|
|----------3---3---(3)---------|------3--3-3-(3)----3----3-------------------|
|----------0---0---(0)---------|------0--0-0-(0)---------0-----0-------------|
|-0--------------------------0-|-2---------------------------------------2---|
|------------------------0h2---|---------------------------------------------|
|------------3---------3-------|---------------------------------------------|
|
|                                             |------3------|  |-----3-----|
| S  a S S S E S S +Q    Q       E. S E  e    E        e    e  E  a  +E    E
|------------------------------|----------------------10---10-10-------------|
|--------3---3-5---------------|------8-10---10b12===============10r(10)---8-|
|----2s4---4-----4-(4)---------|----9----------------------------------------|
|------------------------------|---------------------------------------------|
|------------------------------|---------------------------------------------|
|------------------------------|---------------------------------------------|


  G
  E.          S  E  E            +S    S  E    S  S E
|-------------3-----3------------(3)---3----------------|
|-------------3-----3------------(3)---3----------------|
|-------------0-----0------------(0)--------------------|
|-0-------------------------------------------------0---|
|----------------------------------------------0h=2-----|
|----------------3------------------------3-------------|
|
|                                           ~~~~~~
| |----3----|
| E   E     E    E  T      +T  S  E       S S +Q
|----10b12-10---10--------------------------------------|
|------------------10pb12r(10)p8-10b12---10-8-(8)-------|
|-------------------------------------------------------|
|-------------------------------------------------------|
|-------------------------------------------------------|
|-------------------------------------------------------|


  Em7
  E             E   E  S S  S      S  E         E  E
|-------------------3--3-3---------3-----------------|
|-------------------3--3-3--3------3-----------------|
|---------------0---0--0-0--0------------------------|
|-2-----------------------------------2---------0----|
|--------------------------------------------------2-|
|----------------------------------------------------|
|
|                                            ~~~~~~
| S  T      +T  S S E  S S  S      S  T  +T  S +Q
|---------------------------------10-----------------|
|---10pb12r(10)p8---8-10p8-10b12=====10r(10)p8-(8)---|
|-----------------9----------------------------------|
|----------------------------------------------------|
|----------------------------------------------------|
|----------------------------------------------------|


  A7sus4                                   Em7
  E       E    E   S S +S  S S S  S  S E    E.      S  E. S +S  S E   E   E
|--------------3---3-------3---3---------|-------------3--3-(3)-3-----------|
|--------------3---3-------3-3-3---------|-------------3--3-(3)-3-----------|
|--------------0---0---------0-----------|----------0--0--0-(0)-------------|
|---------2----------------------------0-|--2---------------------2---0-----|
|-0------------------0-(0)--------0h=2---|--------------------------------2-|
|----------------------------------------|----------------------------------|
|
|                                                   ~~~~~~
| S  e      S  S S S S  S  S E   +S  S e    E     S S +Q     E    S S S S e
|----------------------------------------|----------------------------------|
|---10b12---8-10-----------8-----------8-|-10b12r10p8-(8)---------8p7-8p7-8-|
|----------------9-9p7--9----9---(9)-9---|----------------------------------|
|----------------------------------------|----------------------------------|
|----------------------------------------|----------------------------------|
|----------------------------------------|----------------------------------|


  A7sus4
  E E   E      E     +S  S S S   S S  S S
|-------3----------------3----------------||
|-------3----------------3---3------------||
|-------0----------------0---0--------0-0-||
|---2----------------------2-----0----0-0-||
|-0------------0-----(0)---------0h2------||
|-----------------------------------------||
|
|                                  ~~
| E S S s a  E    S  +E.     T T S E.
|-----------------------------------------||
|---8p7-8-8s10---10-(10)-----8p7----------||
|--------------------------------9-7------||
|-----------------------------------------||
|-----------------------------------------||
|-----------------------------------------||


 Outro
                               ritardando Q=54
  G             C     G                    Em
  E E Q  E. S S S E   E E E. S E E S S E    W
|-----3-----3---3-3-|-----3--3-3---------|-^0----*|
|-----0--0--0-0-1-1-|-0---0--0-0---------|-^0----*|
|-----0--0--0-0-0-0-|-0---0--0-0---------|-^0----*|
|-----0--0--0-0-2-2-|-0---0----0-------0-|-^2----*|
|--------2--------3-|-2------------0-2---|-^2----*|
|-3-3----3----------|---3--------3-------|-^0----*|
|
| E E Q  E. S S S E   E E E. S E E S S E    W
|-----3-----3---3-3-|-----3--3-3---------|-^0----*|
|-----0--0--0-0-1-1-|-0---0--0-0---------|-^0----*|
|-----0--0--0-0-0-0-|-0---0--0-0---------|-^0----*|
|-----0--0--0-0-2-2-|-0---0----0-------0-|-^2----*|
|--------2--------3-|-2------------0-2---|-^2----*|
|-3-3----3----------|---3--------3-------|-^0----*|


Duration Legend
---------------
W - whole; H - half; Q - quarter; E - 8th; S - 16th; T - 32nd; X - 64th; a - acciaccatura
+ - note tied to previous; . - note dotted; .. - note double dotted
Uncapitalized letters represent notes that are staccato (1/2 duration)
Irregular groupings are notated above the duration line
Duration letters will always appear directly above the note/fret number it represents the
duration for.  Duration letters with no fret number below them represent rests.  Multi-
bar rests are notated in the form Wxn, where n is the number of bars to rest for.  Low
melody durations appear below the staff

Tablature Legend
----------------
 h   - hammer-on
 p   - pull-off
 b   - bend
 pb  - pre-bend
 r   - bend release (if no number after the r, then release immediately)
 /\  - slide into or out of (from/to "nowhere")
 s   - legato slide
 S   - shift slide
  - natural harmonic
[n]  - artificial harmonic
n(n) - tapped harmonic
 ~   - vibrato
 tr  - trill
 T   - tap
 TP  - trem. picking
 PM  - palm muting
\n/  - tremolo bar dip; n = amount to dip
 \n  - tremolo bar down
 n/  - tremolo bar up
/n\  - tremolo bar inverted dip
 =   - hold bend; also acts as connecting device for hammers/pulls
 <>  - volume swell (louder/softer)
 x   - on rhythm slash represents muted slash
 o   - on rhythm slash represents single note slash

Misc Legend
-----------
 |  - bar
||  - double bar
||o - repeat start
o|| - repeat end
*|  - double bar (ending)
 :  - bar (freetime)
 $  - Segno
 &  - Coda
Tempo markers -  = BPM(8/16=s8/s16), where s8 = swing 8ths, s16 = swing 16ths

Добавлено: 11.09.2015
Вам также может быть интересно:
Другие материалы по этой песне:

Страница создана 11.09.2015
http://primanota.ru/pink-floyd/wish-you-were-here-live-chords.htm
Привет, Гость.
Предлагаем пройти революционный курс по гитаре.
Подарок от PrimaNota.Ru, забирай!