PrimaNota.ru - самый крупный в мире бесплатный архив песенных текстов, аккордов, табулатур и нот


Pink Floyd - Shine On You Crazy Diamond (Part II) - текст песни, таба, видео

Регистрация Запомнить меня
Войти через:  Facebook Google Twitter Vk Yandex Mail.ru

Pink Floyd - Shine On You Crazy Diamond (Part II) - текст песни, таба, видео

Печатать
Просмотров: 151
Уроки эстрадного вокала в Санкт-Петербурге
-------------------------------------------------------------------------------
              SHINE ON YOU CRAZY DIAMOND (PART 2) - PINK FLOYD
-------------------------------------------------------------------------------

Tabbed by: Ben Robinson (brob711)
E-mail: ben.robinson711@gmail.com

Tuning: Standard (EADGBe)

e|-----------------------------|---------|--------------------------------|
B|--------18b20-------18-18b20-|---------|--------------------------------|
G|-----------------------------|---------|------15---17-17b19---17 17b19--|
D|-----------------------------|---------|-17-----------------------------|
A|-----------------------------|---------|--------------------------------|
E|-----------------------------|---------|--------------------------------|

e|-----------------------|-----------------------|----------------------------|
B|-----------------------|-----------------------|--10-11-10----10------------|
G|-----17b19r17r15---17--|-17b19---17-17b19------|-----------12----10-10----10|
D|-----------------------|-----------------------|-----------------------12---|
A|-----------------------|-----------------------|----------------------------|
E|-----------------------|-----------------------|----------------------------|

e|---------------------------------|-----------------|----------------------|
B|---------------------------------|-----------------|----------------------|
G|------12b15r12----12b15----15r12-|---10-12--12b15--|-----------12b15r12---|
D|---------------------------------|-----------------|----------------------|
A|---------------------------------|-----------------|----------------------|
E|---------------------------------|-----------------|----------------------|

e|----------------------------------|-------15--18--------18b20-|
B|----------------------18---18b20--|-18b20---------------------|
G|--10-12-12-----17b19--------------|---------------------------|
D|----------------------------------|---------------------------|
A|----------------------------------|---------------------------|
E|----------------------------------|---------------------------|

e|---18\---------------------|--------------------|-----------------------|
B|---------------------------|--------------------|-----------------------|
G|------------17b18r17--15---|------------10--12--|--12b15(15)(15)r12-----|
D|---------------------------|--------12----------|-----------------------|
A|---------------------------|--------------------|-----------------------|
E|---------------------------|--------------------|-----------------------|

e|--------------|-----------------------------|------------------|
B|--------------|-----------------------------|------------------|
G|-10--12-------|-----------17b19r17-15--17---|--17b19-----------|
D|--------------|-----------------------------|------------------|
A|--------------|-----------------------------|------------------|
E|--------------|-----------------------------|------------------|

e|-----------------------|--15---------------------------|-----------------------------------|
B|----------18-----18b20-|-----18b20-------18b20r18--15--|-----------------------------------|
G|----17b19--------------|-------------------------------|--17b19--------17b19r17-15--17-----|
D|-----------------------|-------------------------------|-----------------------------------|
A|-----------------------|-------------------------------|-----------------------------------|
E|-----------------------|-------------------------------|-----------------------------------|

e|-----------------------|-------------------------|------------------------|
B|-----------------------|-------------------------|------------------------|
G|-----17----------------|-------------------------|---------------------18-|
D|---------------15-17---|--15-----17b19r17r15--17-|---17b19-------17b19----|
A|-----------------------|-------------------------|------------------------|
E|-----------------------|-------------------------|------------------------|

e|---------------------------15--|----18----------18--20b22-----18b20r18--17------|-15---------|
B|---------------------18b20-----|--------------------------------------------18--|------------|
G|-----17b19---------------------|----------19------------------------------------|------------|
D|-------------------------------|------------------------------------------------|------------|
A|-------------------------------|------------------------------------------------|------------|
E|-------------------------------|------------------------------------------------|------------|

e|-------------------------|
B|-------------------------|
G|-------------------------|
D|-------------------------|
A|-------------------------|
E|-------------------------|




************************************

| /   slide up
| \   slide down
| h   hammer-on
| p   pull-off
| ~   vibrato
| b   Bend
| r   Release

************************************
Добавлено: 01.07.2015
Другие материалы по этой песне:
  • Аккорды и текст

Страница создана 01.10.2014
http://primanota.ru/pink-floyd/shine-on-you-crazy-diamond-part-ii-chords.htm
Привет, Гость.
Предлагаем пройти революционный курс по гитаре.
Подарок от PrimaNota.Ru, забирай!