PrimaNota.ru - самый крупный в мире бесплатный архив песенных текстов, аккордов, табулатур и нот


Pink Floyd - Shine On You Crazy Diamond part 5 - аккорды и текст, таба, видео

Регистрация Запомнить меня
Войти через:  Facebook Google Twitter Vk Yandex Mail.ru

Pink Floyd - Shine On You Crazy Diamond part 5 - аккорды и текст, таба, видео

Печатать
Просмотров: 169
Shine On You Crazy Diamond part 5
Pink Floyd
---------------0------------------------------0--|
------6-----------------------------6------------|
---------0----(0)------------------------0---(0)-|
--8-----------(8)---------------8------------(8)-|
-------------------------------------------------|
---------------------1>3>1>3---------------------|
 
--8-------10------8------0------8------10-------8-------|
----6--------6------6------6------6-------6--------6----|
--------------------------------------------------------|
-------8-------8------8------8------8-------8---------8-|
--------------------------------------------------------|
--------------------------------------------------------|

-0--------8--------10------8-------0------8--------10-------8--------
----6--------6---------6-----6-------6-------6--------6--------6-----
--------------------------------------------------------------------- repeat
-------8--------8--------8------8-------8-------8--------8-------8--- 3
--------------------------------------------------------------------- times.
---------------------------------------------------------------------

--6---6------6-------5-------6-------6--------6------5------6-------|
---------------8-------8-------8--------8-------8------8-------8----|
--------------------------------------------------------------------|
---------8--------8-------8-------8--------8-------8-----8--------8-|
--------------------------------------------------------------------|
--------------------------------------------------------------------|

--5-------5-------4-------5--------6-----5--------4-----5-------|
----7-------7-------7--------7--------7-----7--------7-----7----|
----------------------------------------------------------------|
------7--------7-------7--------7-------------7---------------7-|
----------------------------------------------------------------|
----------------------------------------------------------------|

--0-------8--------10--------8-------0-------8-------10--------8-------
----6-------6----------6-------6-------6--------6--------6-------6-----
----------------------------------------------------------------------- repeat
------8--------8---------8--------8-------8--------8--------8-------8--  8
----------------------------------------------------------------------- times.
-----------------------------------------------------------------------

--6------6------5------6------6------6-----5-------6--------|
----8------8------8-------8-----8-------8-----8------8------|
------------------------------------------------------------|
------8-------8------8------8------8-------------8------8\7-|
------------------------------------------------------------|
------------------------------------------------------------|

--5-----5-----4-----5-----6------5-----4-----5-------|
-----7----7-----7-----7-----7-------7-----7-----7----|
-----------------------------------------------------|
------------7-----7-----7-----7--------------------7-|
-----------------------------------------------------|
-----------------------------------------------------|

--0-------8-------10------8------0--------8-------10--------8---------
-----6-------6-------6------6-------6-------6---------6--------6------
---------------------------------------------------------------------- repeat
-------8-------8--------8------8-------8-------8---------8---------8--  and
---------------------------------------------------------------------- fade
----------------------------------------------------------------------
Добавлено: 26.01.2014
Другие материалы по этой песне:

Страница создана 27.04.2012
http://primanota.ru/pink-floyd/shine-on-you-crazy-diamond-part-5-chords.htm
Привет, Гость.
Предлагаем пройти революционный курс по гитаре.
Подарок от PrimaNota.Ru, забирай!