PrimaNota.ru - самый крупный в мире бесплатный архив песенных текстов, аккордов, табулатур и нот


Pink Floyd - Shine on Pt2 - таба, видео

Регистрация Запомнить меня
Войти через:  Facebook Google Twitter Vk Yandex Mail.ru

Pink Floyd - Shine on Pt2 - таба, видео

Печатать
Просмотров: 130
Shine On You Crazy Diamond
part 2
by Pink Floyd


tabbed by
jamesb@nevada.edu



chords;
-------



C			Gm7			Eb
-------12------		---------10-----	--------11-----
-------13------		---------11-----	--------11-----
-------12------		---------10-----	--------12-----
---------------		----------------	---------------
---------------		----------------	---------------
---------------		----------------	---------------


D
-------10------
-------10------
-------11------
---------------
---------------
---------------



---------------0----
------6-------------		<-- repeat 4 times.
----------0---(0)---
---8----------(8)---
--------------------
--------------------



C						 Gm7
-------------0----------------------------------------------------0---
------6-----------------------------------------------------6---------
---------0-----------------------------------------------------0------
---8-----------------------------------------------------8------------
-----------------3--3--3--3--3--3--3--3--3--3/5-----------------------
-----------------1--1--1--1--1--1--1--1--1--1/3-----------------------


Eb		D					Gm7
------------------------------------------------------------------------
------6-----------------------------------------------------------------
----------0---8------------8---7----------------------------------------
--8-----------8------------8---7----------------------------------------
-------------------------------------3--3--3--3--3--3--3--3--3--3/5-----
-------------------------------------1--1--1--1--1--1--1--1--1--1/3-----



------------------0---
-------6--------------
------------0---------
---8------------------
----------------------
----------------------


solo;
-----


-------------------------------------3---------------------------------------
----------------------------------3-----3------------------------------------
---17>(19)>17---15--17----------------------5>(7)----(7)>5>3------5---3------
------------------------17\------------------------------------5----------5--
-----------------------------------------------------------------------------
-----------------------------------------------------------------------------


--18>15-----18---17>(18)--17vvv---------------------------------------------
--15----15--15---------------------18>15--18>(20)----18>(20)>18>15--18vvvv--
----------------------------------------------------------------------------
----------------------------------------------------------------------------
----------------------------------------------------------------------------
----------------------------------------------------------------------------



--18>15------18>15-----18>(20)---18>(20)>1815--18------------------
---------15--------15------------------------------18>(20)--18\----
-------------------------------------------------------------------
-------------------------------------------------------------------
-------------------------------------------------------------------
-------------------------------------------------------------------


--------------------------------------------------------------------------
--------------------------------------------------------------------------
--15>(17)>(19)>15--12--15>(16)vvv-12------6\5--3>(4)----------------------
-------------------------------------------------------5------------------
-----------------------------------------------------------4\3---1--3/5---
--------------------------------------------------------------------1/3---


--------------------------6--------------------------------------
-----------------------------5/6--8/-------(11)>10>8------8/-----
------3--------------6>7------------------------------10---------
------3--3/5vvvvvv-----------------------------------------------
--4/5------------------------------------------------------------
-----------------------------------------------------------------


-------------------------------------------------------------------------
-------------------------------------------------------------------------
---15--17>(19)>17>(19)----17>(19)>(20)vvvvv----17>(19)>(20)---17>(20>17--
-------------------------------------------------------------------------
-------------------------------------------------------------------------
-------------------------------------------------------------------------


--------------------------------15----15-----15--------------15---15--
----------------------------18>(20)------18>(20)>18>15---18>(20)------
----------------------------------------------------------------------
--16---16>17>16\14>16--16---------------------------------------------
----------------------------------------------------------------------
----------------------------------------------------------------------


--17>(18)--17>(18)---17-----------------------------------------------
-------------------------18>(20)----(20)>18>15---18-------------------
-----------------------------------------------------17>(19)=====>17--
----------------------------------------------------------------------
----------------------------------------------------------------------
----------------------------------------------------------------------


---------------------------------------------------------------------------
---------------------------------------------------------------------------
--(19)>17>15-----------------3---5---5>(7)>(8)>5---(8)>5--3--5--5>(7)vvvv--
--------------17\---------5------------------------------------------------
---------------------------------------------------------------------------
---------------------------------------------------------------------------


-----------------------------------------------------------------------
----------3----6-------------------------------------------------------
---5>(7)-----------5>(8)==========>5--(7)>5>3-----5--5>(7)vvvvvvvv>5---
-----------------------------------------------------------------------
-----------------------------------------------------------------------
-----------------------------------------------------------------------


Keyboard solo;

Gm					 Cm
------------------------------------------------------------
---------5\3-------------------5\3-------------------10\8---
------------------------------------------------------------
---3/5---5\3--------------3/5--5\3-------------8/10--10\8---
---------------------------------------5--------------------
------------------------------------6-----------------------


Gm		   Eb	   D	 Eb		D    Gm    Cm   Gm    D7#9
----------------------------------------------------------------------------
--------5\3-----8------7------8------11\---7---------------------------6----
-----------------------------------------------------------------------5----
---3/5--5\3-----8------7------8------11\---7---------------------------4----
-----------------------------------------------------------------------5----
----------------------------------------------------------------------------


solo

------15------------15---18>15-------------------3----------------0----------
--15-------18>(20)--------------18>(20)\------3------6-----------------------
---------------------------------------------------------5>(7)----5>3--5--3--
-----------------------------------------------------------------------------
-----------------------------------------------------------------------------
-----------------------------------------------------------------------------


-----------------------------------------------------------18-----------------
--------------------------------------11----11-----18>(20)-----18>(20)vvvv18\-
----------15>(17)>15>(19)>15----11/12----12-----------------------------------
--5vvvv-----------------------------------------------------------------------
------------------------------------------------------------------------------
------------------------------------------------------------------------------


-------6>5--------------------------------------------------------------
------------6/8\--------------------------------------------------------
--6/7--------------(17)>15>(19)>15--------15--17>(18)>17>15--17--17>15--
------------------------------------15/17-------------------------------
------------------------------------------------------------------------
------------------------------------------------------------------------


-------------------------------3----------------------------------------------
----------------------------------6--------------------3----------------------
--17--17--17>15--17>(19)vvvv\--------5>(7)---5--3>(5)--3---3---5----3\2-------
---------------------------------------------------------5-------5------3-----
--------------------------------------------------------------------------3/5-
------------------------------------------------------------------------------


-----------------------------------------------15-------------------------
-------------------------------------18>(20)--------18>(20)-----18>(20)---
--------3---------15>(17)>15>(19)>0--------------------------0------------
-----------3>5------------------------------------------------------------
--4/5---------------------------------------------------------------------
--------------------------------------------------------------------------


--15--18>15--18>(20)vvv-----18>(20)>18>15--18---------------------------------
-----------------------------------------------18>(20)------------------------
-------------------------0-----------------------------------15--17--17>(19)--
---------------------------------------------------------17-------------------
------------------------------------------------------------------------------
------------------------------------------------------------------------------


--------------------------------------------------------------------
--------------------------------------------------------------------
--17>(20)---17>(20)>17---------------------------------14--15vvvv\--
-------------------------16vvvv---16>17>16\14--16--17--16--17vvvv\--
--------------------------------------------------------------------
--------------------------------------------------------------------

-----3-----------------------------------------------------------
--3----6---------------------------------------------------------
----------5>(7)vvvv>5---(8)>5>3---5--3----3----------------------
----------------------------------------5----5-------------------
------------------------------------------------5\3--1--3/5--5\--
-----------------------------------------------------------------


legend;
-------


legato						---7>6>7----
bend(and release)				--7>(8)>7---
hold bend					--7>(8)===>7-
vibrato						--7vvvvvvvv-
slide						---7/8------





transcribed by Dave Whitehill
for Guitar World
Добавлено: 13.06.2012
Другие материалы по этой песне:
  • Аккорды и текст

Страница создана 13.06.2012
http://primanota.ru/pink-floyd/shine-on-pt2-chords.htm
Привет, Гость.
Предлагаем пройти революционный курс по гитаре.
Подарок от PrimaNota.Ru, забирай!