PrimaNota.ru - самый крупный в мире бесплатный архив песенных текстов, аккордов, табулатур и нот


Pink Floyd - Pigs Three Different Ones - аккорды и текст, таба, бас-таба, видео

Регистрация Запомнить меня
Войти через:  Facebook Google Twitter Vk Yandex Mail.ru

Pink Floyd - Pigs Three Different Ones - аккорды и текст, таба, бас-таба, видео

Печатать
Просмотров: 499
Уроки эстрадного вокала в Санкт-Петербурге
Авторы музыки: Roger Waters
Авторы текста: Roger Waters
Pigs Three Different Ones
Pink Floyd
Em  C  Em  C  .....

INTRO:
E|--0-2-3-2-0-2-3---0-2-3-2-0-2-3--0-2-3-2-0-2-3--0-2-3-2-0-2-3|
B|0---------------0--------------1--------------1--------------|
G|-------------------------------------------------------------|
D|-------------------------------------------------------------|
A|-------------------------------------------------------------|
E|-------------------------------------------------------------|

E|17b--------------------------------------------17b-----------|
B|-----19---0-0--0--0----0-0--0--0----0-0--0--0------0-0--0--0-|
G|----------0-0--0--0----0-0--0--0----0-0--0--0------0-0--0--0-|
D|----------9-9--9--9----5-5--5--5----5-5--5--5------5-5--5--5-|
A|----------7-7--7--7----3-3--3--3----7-7--7--7------3-3--3--3-|
E|-------------------------------------------------------------|

E|----------------------------------------------0--0--0--------|
B|0-0-0-0-0-0-0-0----0-0--0--0------------------0--0--0--------|
G|0-0-0-0-0-0-0-0----0-0--0--0------------------0--0--0--------|
D|5-5-5-5-9-9-9-9-5-5-5--5--5------5-----------2--2--2---2--2-|
A|3-3-3-3-7-7-7-7----3-3--3--3--3-3-3---3----------------------|
E|-----------------------------------------3-2-----------------|

E|-17b-----------3--3---2--0--------0-|
B|------1-1------3--3---3--0--15pb--0-|
G|------0-0------4--4---3--0--------0-|
D|------2-2-2----5--5---------------2-|
A|---------------5--5---------------2-|
E|------3-3------3--3---------------0-|

Em                C                 G     Em
Big man, pig man, ha ha charade you are
                          C                 G    Em
You well heeled big wheel, ha ha charade you are
   C                         G
And when your hand is on your heart
A7
You're nearly a good laugh, almost a joker

With your head down the pigbin saying keep on digging
Am7
Pig stain on your fat chin

What Do you hope to find down in the pig mine

You're nearly a laugh, you're nearly a laugh
                Em    C         Em  D  Em  D  Em  D  Em  D
But you really a cry______

Em                C                 G      Em
Bus stop rat bag, ha ha charade you are
                      C                 G    Em
You fucked up old hag, ha ha charade you are
C                                 G
You radiate cold shafts of broken glass
A7
You're nearly a good laugh, almost worth a quick grin

You like the feel of steel, you're hot stuff with a hat pin
Am7
And good fun with a hand gun

You're nearly a laugh, you're nearly a laugh
                   Em    C     Em  D  Em  D  Em  D  Em  D
But you're really a cry______

Em  D  Em  D  Em  D  Em  D  Em  D  Em  D  Em  D  Em  D

C  Bb  C  Bb  C  Bb  C  Bb  C  Bb  C  Bb  Em  ....

Em  C  Em  C  Em  C  Em  C  Em  C  Em  C  Em  C

Em                   C                 G    Em
Hey you, Whitehouse, ha ha charade you are
                           C                 G    Em
You house proud town mouse, ha ha charade you are
      C                                  G
You're trying to keep our feeling off the street
Am
You're nearly a real treat, all tight lips and cold feet

And Do you feel abused

.......!  .......!  .......!  .......!

You gotta stem the evil tide and keep it all on the inside

Mary, you're nearly a treat, Mary, you're nearly a treat
                   Em   C      Em  D  Em  D  Em  D  Em  D
But you're really a cry_____

Em  D  C  D
[Repeat and fade]

Solo  ~~~~~~~~~~                                      ~~~~~~~~~
E|12------------12----12----12---------12-------12--------------12--12-12--|
B|15b-----------15b---15b---15b--------15b----------15pb--------15b----15b-|
G|-------------------------------------------------------------------------|
D|-------------------------------------------------------------------------|
A|-------------------------------------------------------------------------|
E|-------------------------------------------------------------------------|
          ~~~~                           ~~~~~~~~
~~~~~
E|12-12---12----14---14---14---14-------15------------15b--12--15/17--17b-|
B|---15b--15b---17b--17b--17b--17---12------------12-------12-------------|
G|-------------------------------------------------------------------------|
D|-------------------------------------------------------------------------|
A|-------------------------------------------------------------------------|
E|-------------------------------------------------------------------------|
        1 1/2
E|17/19-19b-----19--17--1715--17/19--17--15--14--15--14------14--------|
B|--------------------------------------------------------17-----17--15-|
G|----------------------------------------------------------------------|
D|----------------------------------------------------------------------|
A|----------------------------------------------------------------------|
E|----------------------------------------------------------------------|
                                    1/2~~~~~~~        1/2
~~~~
E|----------------12-------------------------------------------------------|
B|15--14-1312-15----12h13p12-----12---------------------------------------|
G|-----------------------------14---14b--------12--14--14pb-p12---14-12----|
D|--------------------------------------------------------------14------14-|
A|-------------------------------------------------------------------------|
E|-------------------------------------------------------------------------|
         1/2~~~~ 1/2                   ~~~~~~                 ~~~~
E|-------------------------------------------------------------------------|
B|-----15-15-----15b----15----------12-----------------------------0-----0-|
G|x-x-----14b----14b----14p12---14--12-----------------------------0---x-0-|
D|-------------------------------------14--12------------------------------|
A|-----------------------------------------12--1412p10--12p10-------------|
E|-------------------------------------------------------------12----------|

E|--------------------------3-----3------3-------5---53------/12--12----|
B|------------------------------------------------------------/12-----12-|
G|2b---2b---2b------0--2/4----/4----/4------4/6------64---4-------------|
D|---------------2-------------------------------------------------------|
A|-----------------------------------------------------------------------|
E|-----------------------------------------------------------------------|
                                       ~~~~~~~~~~~~~~        1/2
E|15p12-7--15p12-7--15p12-7--15p12-7---15b------------15--14--14b----14-12-|
B|-------------------------------------------------------------------------|
G|-------------------------------------------------------------------------|
D|-------------------------------------------------------------------------|
A|-------------------------------------------------------------------------|
E|-------------------------------------------------------------------------|
        ~~~~                                                       1/4
E|12-----------------------------------------------------------------------|
B|---15b-----15p12----12-12------------------------------------------------|
G|-----------------14-------14pb--12-14p12----12---------------------------|
D|-----------------------------------------14----14-13-12----12------------|
A|--------------------------------------------------------14----14--10--12-|
E|-------------------------------------------------------------------------|
                                                               ~~~~~~
E|------------------------------------------12----15-----------------------|
B|12----------12-------14-14b----------15b--15b--------15b--12--15-----15-|
G|12----------12---14--14-14b--14--12--------------------------------------|
D|---14p12-----------------------------------------------------------------|
A|---------14--------------------------------------------------------------|
E|-------------------------------------------------------------------------|
                                           ~~~~~~~              1/4
E|--------------14---------14-------14-------------------------------------|
B|x-15--15---------14----------15-------14---------------------------------|
G|----------14---------14---------14--------14b----0-14b-12-14--12b--------|
D|------------------------------------------------------------------14-----|
A|---------------------------------------------------------------------14-|
E|-------------------------------------------------------------------------|

E|---------x--------------------------------------------------------------|
B|-0--15------15-----------15---------------------------------------------|
G|-0--14b-----14b--12--12-----12--14--14b--14pb--12----14-12--------------|
D|-0------------------------------------------------14-------14-12--------|
A|-----------------------------------------------------------------12-10-|
E|------------------------------------------------------------------------|
                                                               Repeat
once
E|-------------------------------------------------------------------------|
B|--------12--12--12--12--12--12-12--12---12-12--12-0-----12--0---12---12--|
G|--------12--12--12--12--12--12-12--12---12-12--12---0---12----0-12---12'-|
D|-----------------------------------------------------------------------'-|
A|12p10--------------------------------------------------------------------|
E|------12-----------------------------------------------------------------|
                                                      Play until song
ends
E|-15p12----15p12----15p12----15p12----15p12----15p12----15p12-----15p12----|
B|-------12-------12-------12-------12-------12-------12-------12--------12-|
G|------------------------------------------------------------------------'-|
D|------------------------------------------------------------------------'-|
A|--------------------------------------------------------------------------|
E|--------------------------------------------------------------------------|
Добавлено: 06.01.2014
Другие материалы по этой песне:

Страница создана 31.03.2012
http://primanota.ru/pink-floyd/pigs-three-different-ones-chords.htm
Привет, Гость.
Предлагаем пройти революционный курс по гитаре.
Подарок от PrimaNota.Ru, забирай!