PrimaNota.ru - самый крупный в мире бесплатный архив песенных текстов, аккордов, табулатур и нот


Pink Floyd - On Noodle Street - таба, бас-таба, видео

Регистрация Запомнить меня
Войти через:  Facebook Google Twitter Vk Yandex Mail.ru

Pink Floyd - On Noodle Street - таба, бас-таба, видео

Печатать
Просмотров: 213
Уроки эстрадного вокала в Санкт-Петербурге
Авторы музыки: David Gilmour, Richard Wright

ON NOODLE STREET

As recorded by Pink Floyd
(From the 2014 Album THE ENDLESS RIVER)


Music by David Gilmour & Richard Wright
Transcribed by Slowhand


Gtr I (E A D G B E) - 'David Gilmour - Electric Guitar w/ delay'
Gtr II (E A D G B E) - 'David Gilmour - Lap Steel Guitar'


  Q=105
  N.C.                  C#5
 4/4
  Gtr I
  W          W           Q.   E  E E  S  S  S  S    Q.   E E E Q
|----------|----------|--------------------------|------------------||
|----------|----------|--------------------------|------------------||
|----------|----------|--------------------------|------------------||
|----------|----------|-11-----------------------|-11---------------||
|----------|----------|-11------12---12-12-12-12-|-11---------------||
|----------|----------|--9----9----9-------------|--9----0-0-0-0----||


  N.C.
  Q  E E E E  S     +S   E   Q  E  E  E    E  E  E
|--------9-----------------|-----------------------|
|------9---9-12b14-(12)-14-|-----------------------|
|--------------------------|---------11b12-9-11----|
|--------------------------|------11------------11-|
|--------------------------|-----------------------|
|-9------------------------|-----------------------|


  Q.    E Q  E E   Q  E E  Q  E  E
|----------------|-----------------|
|----------------|-----------------|
|-9----11--------|-----------------|
|----------------|--------------11-|
|----------------|--------12-------|
|--------------x-|-9--x-x----------|


       |-3--|
  E  E S  S S  E Q  Q     S     +E.  E E  S     +S  S S  E  S      +S
|----------------------|------------------------------9----------------|
|----------------------|-12b14-(12)-12-9------------9---12-------------|
|-9-11-9h11p9----9--9--|-----------------11b13-(11)--------11pb13r(11)-|
|-------------11-------|-----------------------------------------------|
|----------------------|-----------------------------------------------|
|----------------------|-----------------------------------------------|


  Q.   E  Q.   E    H.       S     +S  E
|----------------|------------------------|
|----------------|------------------------|
|-9----9---------|----------11b13r(11)-9--|
|----------------|-11---------------------|
|--------12------|------------------------|
|----------------|------------------------|


  Q.   E  Q.   E   Q.   E  Q.   E   W
|----------------|----------------|----------|
|----------------|----------------|----------|
|-9----9---------|-9----9---------|----------|
|----------------|----------------|----------|
|--------12------|--------12------|----------|
|----------------|----------------|----------|
|
| Gtr II
| W                W                W
|----------------|----------------|----------|
|----------------|----------------|----------|
|----------------|----------------|----------|
|----------------|----------------|----------|
|----------------|----------------|----------|
|----------------|----------------|----------|


  E  S     +S  S S  S S  S     +S  S  S  S E.
|----------------9----------------------------|
|--------------9---12-9-----------------------|
|---11b13-(11)----------11b13r(11)-9----11-9--|
|------------------------------------11-------|
|---------------------------------------------|
|---------------------------------------------|
|
|                                        <
| H                      Q               Q
|---------------------------------------------|
|----------------------------------------5----|
|----------------------------------------6----|
|---------------------------------------------|
|---------------------------------------------|
|---------------------------------------------|


   H     Q   S     +S   E    +Q    q  H
|-------------------------|-------12-------|
|-----------12b14-(12)-14-|-(14)-----------|
|-------------------------|----------------|
|-------------------------|----------------|
|-------------------------|----------------|
|-------------------------|----------------|
|
|                             >
| +W                         +W
|-------------------------|----------------|
|-(5)---------------------|--(5)-----------|
|-(6)---------------------|--(6)-----------|
|-------------------------|----------------|
|-------------------------|----------------|
|-------------------------|----------------|


  E  E Q  H      H    Q   S     +S  S  S
|--------------|-------------------------|
|--------------|-------------------------|
|-9------------|---------11b13r(11)-9----|
|-9------------|----------------------11-|
|---11---------|-------------------------|
|--------------|-------------------------|
|
| W              W
|--------------|-------------------------|
|--------------|-------------------------|
|--------------|-------------------------|
|--------------|-------------------------|
|--------------|-------------------------|
|--------------|-------------------------|


   S      +E.  +H.         W          E  E  q   H      E  E  +E   E H
|------------------------|----------|-9-11-12--11----|-------------------|
|------------------------|----------|----------------|---12-(12)\--------|
|-11b13==(11)-(11)r------|----------|----------------|--------------8----|
|------------------------|----------|----------------|-------------------|
|------------------------|----------|----------------|-------------------|
|------------------------|----------|----------------|-------------------|


  H    Q   Q     H.       S     +E.
|---------19S=|=16------------------|
|-------------|----------19b21-(19)-|
|-------------|---------------------|
|-------------|---------------------|
|-------------|---------------------|
|-------------|---------------------|


   H    H      W          Q  E  E  +Q    Q
|-16---------|----------|------16-(16)\------|
|------------|----------|------17-(17)\------|
|------------|----------|--------------------|
|------------|----------|--------------------|
|------------|----------|--------------------|
|------------|----------|--------------------|


  W          W          Q   S     +S   E  Q       S      +E.    W
|----------|----------|---------------16----------------------|------|
|----------|----------|----19b21-(19)----19pb21--19pb21r(19)\-|------|
|----------|----------|---------------------------------------|------|
|----------|----------|---------------------------------------|------|
|----------|----------|---------------------------------------|------|
|----------|----------|---------------------------------------|------|


  H    Q  E S  S   H    E  S  S  +E   E    +H     H      H     S  S  E  E  E
|----------------|----------------------|--------------|---------------------|
|----------------|-------------------12-|-(12)---------|------------12-12----|
|----------------|-9------11s13-(13)----|--------------|------11s13-------13-|
|-----------9s11-|----------------------|--------------|---------------------|
|----------------|----------------------|--------------|---------------------|
|----------------|----------------------|--------------|---------------------|


   Q   E  E  E  S     S S  E.   Q   S S  E  +Q    +E   S  S
|-----------------------------|-9---------------------------|
|-12--14----12----------------|-----------------------12s14-|
|--------13----11b12-11-9-----|----11p9---------------------|
|-------------------------11--|---------11-(11)--(11)-------|
|-----------------------------|-----------------------------|
|-----------------------------|-----------------------------|


   +Q    Q  H      E  S      +S   +E    E  E.  S  +E  S S
|----------------|---11b12==(11)-(11)r-11-----------------|
|-(14)--12-------|------------------------12--------------|
|----------------|----------------------------11-(11)-9-8-|
|----------------|----------------------------------------|
|----------------|----------------------------------------|
|----------------|----------------------------------------|


  E. S +E  E  H      S  E. Q  H
|------------------|---------------|
|------------------|---------------|
|-9--8-(8)---------|---------------|
|----------9-------|-9h11----------|
|------------11----|---------------|
|------------------|---------------|


                    >
  H    E E E S  S   E  E  a       E    E   +H
|-----------------|-------------------------------*|
|-----------------|--------------12---12----------*|
|------9-9--------|-9-11-11b13==(11)r(11)-(11)----*|
|------------9s11-|-------------------------------*|
|-----------------|-------------------------------*|
|-----------------|-------------------------------*|


Duration Legend
---------------
W - whole; H - half; Q - quarter; E - 8th; S - 16th; T - 32nd; X - 64th; a - acciaccatura
+ - note tied to previous; . - note dotted; .. - note double dotted
Uncapitalized letters represent notes that are staccato (1/2 duration)
Irregular groupings are notated above the duration line
Duration letters will always appear directly above the note/fret number it represents the
duration for.  Duration letters with no fret number below them represent rests.  Multi-
bar rests are notated in the form Wxn, where n is the number of bars to rest for.  Low
melody durations appear below the staff

Tablature Legend
----------------
 h   - hammer-on
 p   - pull-off
 b   - bend
 pb  - pre-bend
 r   - bend release (if no number after the r, then release immediately)
 /\  - slide into or out of (from/to "nowhere")
 s   - legato slide
 S   - shift slide
  - natural harmonic
[n]  - artificial harmonic
n(n) - tapped harmonic
 ~   - vibrato
 tr  - trill
 T   - tap
 TP  - trem. picking
 PM  - palm muting
\n/  - tremolo bar dip; n = amount to dip
 \n  - tremolo bar down
 n/  - tremolo bar up
/n\  - tremolo bar inverted dip
 =   - hold bend; also acts as connecting device for hammers/pulls
 <>  - volume swell (louder/softer)
 x   - on rhythm slash represents muted slash
 o   - on rhythm slash represents single note slash

Misc Legend
-----------
 |  - bar
||  - double bar
||o - repeat start
o|| - repeat end
*|  - double bar (ending)
 :  - bar (freetime)
 $  - Segno
 &  - Coda
Tempo markers -  = BPM(8/16=s8/s16), where s8 = swing 8ths, s16 = swing 16ths
Добавлено: 09.07.2015
Другие материалы по этой песне:

Страница создана 01.07.2015
http://primanota.ru/pink-floyd/on-noodle-street-chords.htm
Привет, Гость.
Предлагаем пройти революционный курс по гитаре.
Подарок от PrimaNota.Ru, забирай!