PrimaNota.ru - самый крупный в мире бесплатный архив песенных текстов, аккордов, табулатур и нот


Pink Floyd - Is There Anybody Out There - аккорды и текст, таба, видео

Регистрация Запомнить меня
Войти через:  Facebook Google Twitter Vk Yandex Mail.ru

Pink Floyd - Is There Anybody Out There - аккорды и текст, таба, видео

Печатать
Просмотров: 917
Авторы музыки: Roger Waters
Авторы текста: Roger Waters
Is There Anybody Out There
Pink Floyd
		   |-------0--------|------0----------|------0---------|------0----------|
|-----1---1------|-----1---1-------|----1---1-------|----1---1--------|
|---2------2---2-|---2-------2---2-|---2------2---2-|---2-------2---2-|
|-2----------2---|-3-----------3---|-4----------4---|-3-----------3---|
|----------------|-----------------|----------------|-----------------|
|----------------|-----------------|----------------|-----------------|


|-------0--------0-|-------0-------0-|---------0-------|-----------------|
|-----1--------1---|-----1-------1---|-------1---1-----|-------1---------|
|---2--------2-----|---2-------2-----|-----2-------2---|-----2---2-------|
|-2--------0-------|-----------------|---2-----------2-|---2-------2---2-|
|------------------|-3-------2-------|-0---------------|-0-----------0---|
|------------------|-----------------|-----------------|-----------------|


|---------0------|-----------------|
|-------1---1----|-----------1-----|
|-----2-------2--|---------2---1---|
|---2-----------2|-------2---------|
|-0--------------|-----0-----------|
|----------------|-----------------|


|-------0--------|-------0---------|-------0--------|-------0---------|
|-----1---1------|-----1---1-------|-----1---1------|-----1---1-------|
|---2------2---2-|---2-------2---2-|---2------2---2-|---2-------2---2-|
|-2----------2---|-3-----------3---|-4----------4---|-3-----------3---|
|----------------|-----------------|----------------|-----------------|
|----------------|-----------------|----------------|-----------------|





|-----------------|------0-------0--|--------------0-|-----------------|
|-----1-----------|----1-------1---1|------------1---|1-----------1----|
|---2-------------|--2-------2------|2---------2-----|--2-------2---2--|
|-3-------2-0-----|--------0--------|--------2-------|----2---2-------2|
|-----------------|-----------------|--3-2-0---------|------0----------|
|-----------------|-----------------|----------------|-----------------|


|------------0----|-----------0-----|---------0------|
|----------1---1--|---------1-------|-------1---1----|
|--------2-------2|-------2---------|-----0-------0--|
|--2---2----------|-2---2-----------|---2-----------2|
|0---0------------|---0-------------|-3--------------|
|-----------------|-----------------|----------------|


|-----------0-----|---------0-------|-----------------|
|-------1\3---3\1-|-------0---0-----|5---3---1---0----|
|-----0-----------|-----2-------2/5-|--4---2---0---0--|
|---0-------------|---2-------------|-----------------|
|-2---------------|-0---------------|-----------------|
|-----------------|-----------------|-----------------|

|---------0-------|-----------0-----|---------0-------|---8------7------|
|-------1---1-----|-------1\3---3\1-|-------0---0-----|-----------------|
|-----0-------0---|-----0-----------|-----2-------2---|-9------7--------|
|---2-----------2-|---0-------------|---2-------------|-----------------|
|-3---------------|-2---------------|-0---------------|-----------------|
|-----------------|-----------------|-----------------|-----------------|


|-------0--------|------0----------|------0---------|------0----------|
|-----1---1------|-----1---1-------|----1---1-------|----1---1--------|
|---2------2---2-|---2-------2---2-|---2------2---2-|---2-------2---2-|
|-2----------2---|-3-----------3---|-4----------4---|-3-----------3---|
|----------------|-----------------|----------------|-----------------|
|----------------|-----------------|----------------|-----------------|


|-------0--------0-|-------0-------0-|-----------------|-5-7-8------12---|
|-----1--------1---|-----1-------1---|-------1----1/5--|------------10---|
|---2--------2-----|---2-------2-----|-----2-----------|------------9----|
|-2--------0-------|-----------------|---2-------------|------------10---|
|------------------|-3-------2-------|-0---------------|------------0----|
|------------------|-----------------|-----------------|-----------------|



This the right IS THERE ANYBODY OUT THERE tab ever transcribed on the internet. If you play the song like this it should sound like the studio album, but really, exactly like the studio version.     
Добавлено: 21.09.2013
Другие материалы по этой песне:

Страница создана 18.03.2012
http://primanota.ru/pink-floyd/is-there-anybody-out-there-chords.htm
Привет, Гость.
Предлагаем пройти революционный курс по гитаре.
Подарок от PrimaNota.Ru, забирай!