PrimaNota.ru - самый крупный в мире бесплатный архив песенных текстов, аккордов, табулатур и нот


Pink Floyd - Dogs solo 2 - таба, видео

Регистрация Запомнить меня
Войти через:  Facebook Google Twitter Vk Yandex Mail.ru

Pink Floyd - Dogs solo 2 - таба, видео

Печатать
Просмотров: 278
Уроки эстрадного вокала в Санкт-Петербурге


Solo 2
e|--12--13--12--17-15--12-13-15-13-12-12/13--p22---------------------------|
B|--13--15--13---------13-15-17-15-13-13/15--------------------------------|
G|-------------------------------------------------------------------------|
D|-------------------------------------------------------------------------|
A|-------------------------------------------------------------------------|
E|-------------------------------------------------------------------------|

e|--12--13--12--17-15--12-13-15-13-12-12/13--p22---------------------------|
B|--13--15--13---------13-15-17-15-13-13/15--------------------------------|
G|-------------------------------------------------------------------------|
D|-------------------------------------------------------------------------|
A|-------------------------------------------------------------------------|
E|-------------------------------------------------------------------------|

e|--9/10-8-6-5-6--8-6/10-10-8-6-5/6-8-8-8/10-------------------------------|
B|-------------------------------------------------------------------------|
G|-------------------------------------------------------------------------|
D|-------------------------------------------------------------------------|
A|-------------------------------------------------------------------------|
E|-------------------------------------------------------------------------|


e|--12-12-13-17/18/17-10-8-5--------13-15/17/15-10-8/5----------------------|
B|--13-13-15------------------13-15-----------------------------------------|
G|--------------------------------------------------------------------------|
D|--------------------------------------------------------------------------|
A|--------------------------------------------------------------------------|
E|--------------------------------------------------------------------------|



Добавлено: 04.10.2013
Другие материалы по этой песне:
  • Аккорды и текст

Страница создана 04.10.2013
http://primanota.ru/pink-floyd/dogs-solo-2-chords.htm
Привет, Гость.
Предлагаем пройти революционный курс по гитаре.
Подарок от PrimaNota.Ru, забирай!