PrimaNota.ru - самый крупный в мире бесплатный архив песенных текстов, аккордов, табулатур и нот


Pink Floyd - Atom heart mother breast milky - таба, видео

Регистрация Запомнить меня
Войти через:  Facebook Google Twitter Vk Yandex Mail.ru

Pink Floyd - Atom heart mother breast milky - таба, видео

Печатать
Просмотров: 119



Date: Sun, 25 Sep 2005 18:34:38 +0200
From: Lukas Gedziorowski 
Subject: p/pink_floyd/atom_heart_mother_breast_milky.tab

Atom Heart Mother
Pink Floyd

tabbed by yasgur

Viola-part, played two times

e||------------------------|--------------------------------|
B||------------------------|--------------------------------|
G||------------------------|--------------------------------|
D||------------2----0h2----|-------0-2-3-4---4s12~W-11h12h13-|
A||--------0-2---3------0--|-2---3--------------------------|
E||-0--2-3-----------------|--------------------------------|


e|-------------------------------------------------------------||
B|-------------------------------------------------------------||
G|-------------------------------------------------------------||
D|---11-9---12---10-8---8--6-5--3-1---2--0----1----------------||
A|-----------------------------------------3-----4-2-0---------||
E|-----------------------------------------------------3-2-0---||

Organ-Part

e|-------7-----7---------------7-----7------|
B|---------8------8--------------8------8---|
G|-9--9------9------9---9---9------9------9-|
D|------------------------------------------|
A|------------------------------------------|
E|------------------------------------------|

two times, faster for the second time:

e|-7-----7------7-----7------|-12-------12-------12-------12--------|
B|---8------8-----8------8---|----13--------13------13--------13----|
G|-----9------9-----9------9-|-------14-------14-------14--------14-|
D|---------------------------|--------------------------------------|
A|---------------------------|--------------------------------------|
E|---------------------------|--------------------------------------|


e|-10-------10--------10-------10--------|-14-------14--------14-------14--------|
B|----12--------12-------12--------12----|----15--------15-------15--------15----|
G|-------12--------12-------12--------12-|-------16--------16-------16--------16-|
D|---------------------------------------|---------------------------------------|
A|---------------------------------------|---------------------------------------|
E|---------------------------------------|---------------------------------------|


e|-11-------11-------11-------11--------|-13-------13-------13-------13--------|
B|----12--------12------12--------12----|----15--------15------15--------15----|
G|-------13--------13------13--------13-|-------15--------15------15--------15-|
D|--------------------------------------|--------------------------------------|
A|--------------------------------------|--------------------------------------|
E|--------------------------------------|--------------------------------------|


e|-11-------11-------11-------11--------|-12-------12-------14-------14--------|
B|----11-------11--------11-------11----|----13--------13------16--------16----|
G|-------12-------12--------12-------12-|-------14--------14------16--------16-|
D|--------------------------------------|--------------------------------------|
A|--------------------------------------|--------------------------------------|
E|--------------------------------------|--------------------------------------|

--


Добавлено: 06.10.2013
Другие материалы по этой песне:
  • Аккорды и текст

Страница создана 06.10.2013
http://primanota.ru/pink-floyd/atom-heart-mother-breast-milky-chords.htm
Привет, Гость.
Предлагаем пройти революционный курс по гитаре.
Подарок от PrimaNota.Ru, забирай!