PrimaNota.ru - самый крупный в мире бесплатный архив песенных текстов, аккордов, табулатур и нот


Pink Floyd - Another brick in the wall Part II - текст песни, таба, видео

Регистрация Запомнить меня
Войти через:  Facebook Google Twitter Vk Yandex Mail.ru

Pink Floyd - Another brick in the wall Part II - текст песни, таба, видео

Печатать
Просмотров: 419
		   Another Brick in the Wall - part 2.

Words and music by Roger Waters.

(Transcribed by GG - pasgroumpf@yahoo.fr le 10.11.06)

Chords:

     -----------      -----------      -----------       -----------
  5  X X | | | o   3  X X | | o o   1  X | | | o X    1  | | | | o |
     -----------      -----------      -----------       -----------
     | | | | o |      | | | o | |      | | | o | |       | | o | | |
     -----------      -----------      -----------       -----------
     | | o o | |      | | o | | |      | o o | | |       | o | | | |
     -----------      -----------      -----------       -----------
       Dm (V)              G               F                  C

Break :
|--10---8----10--10----8-8----7-7-7----5------|
|--10---8----10--10----8-8----8-8-8----6------|
|-------9----10--10----9-9----7-7-7----5------|
|---------------------------------------------|
|---------------------------------------------|
|---------------------------------------------|

Guitar 1 : see the lyrics down below....

Guitar 2 :
  We Don't...         ..education..
|---------------------------------------------|
|---------------------------------------------|
|---------------------------------------------|
|---------------------------------------------|
|---5-7-8---7------5---7-8-7------------------|
|---------------------------------------------|
  We don't...     force control...
|---------------------------------------------|
|---------------------------------------------|
|---------------------------------------------|
|---------------------------------------------|
|---5-7-8---7------5---7-8--------------------|
|---------------------------------------------|


During the second verse, just play the same phrase at the octave



Words:
 
Dm(v)
We  don't   need   no   education,

Dm(v)
We  don't  need no thought control,

Dm(v)
No dark sarcasm in the classroom.

Dm(v)                          G  
Teacher leave them kids alone.

G                                      (Break)
Hey, Teacher!  Leave them kids alone.
 
F                        C
All in all it's just an - other brick in the wall.


F                         C
All in all it's just an - other brick in the wall.

Play 2 times


Solo:

|-------------------------10-----------------------------------
|-13-p-10----10--------10----13b(15)--------------10-10---10---
|---------12----12b(14)---------------------------10-10---10---
|--------------------------------------------------------------
|--------------------------------------------------------------
|--------------------------------------------------------------



|-----------------------------------------------------------
|-13-b(15)-13 b(17)-rb(13)-------13-p-10--------------------
|-------------------------------------------12---12b(14)----
|-----------------------------------------------------------
|-----------------------------------------------------------
|-----------------------------------------------------------



|------------------------------------------------------------
|--------------------------------12\-------------------------
|-10-p-9 ---9---------12---------12\-------------------------
|--------12---10-/-12----12----------------------------------
|------------------------------------------------------------
|------------------------------------------------------------



|------------------------------------------------------------
|--10----------10--10------10--10------10--12--10-b-(1/2)----
|--10----------10--10------10--10------10--12--10-b-(1/2)----
|-----12--12-----------12----------12------------------------
|------------------------------------------------------------
|------------------------------------------------------------



|-------13b(15)-13-13----------------------------------------------
|-----x------------------13b(15)rb(13)b(17)-------b(18)-rb(13)-/-17
|---x--------------------------------------------------------------
|-x----------------------------------------------------------------
|------------------------------------------------------------------
|------------------------------------------------------------------



|-----------10------------------------------------------------------
|--------10----13p10------------------------------------------------
|-12b(14)-------------12--12-b(14)rb(12)-10---12-p-10-------10------
|------------------------------------------------------12-------12--
|-------------------------------------------------------------------
|-------------------------------------------------------------------



|------------------------------------------------------------
|------------------------------------------------------------
|--12--10----------------------------------------------------
|--12--10----------------------------------------------------
|----------12--10---10--8--------------------8---------------
|--------------------------10p8-----10--10-----10p8--10------



|------------------------------------------------------------
|-----------------5h6p5--------------------------6b(7)-------
|---------5--7---------7---7-p-5------5--7--7p5--------------
|----/7--------------------------7---------------------------
|------------------------------------------------------------
|------------------------------------------------------------


                                               |* w fingers **********
                                                               PM
|----------------------------------------------15b(17)------13--------
|--13b(15)---13b(15)-rb(13)b(17)rb(13)-------------------------15-----
|--x------------------------------------------------------------------
|-x-------------------------------------------------------------------
|x--------------------------------------------------------------------
|---------------------------------------------------------------------


*************** w fingers  ************ w fingers  **********

|-----13-----15b(17)rb(15)b(17)rb(15)b(17)---pb(17)rb(15)----
|-/15----15-----------------------------------------------15-
|------------------------------------------------------------
|------------------------------------------------------------
|------------------------------------------------------------
|------------------------------------------------------------



*************** w fingers  ************** w fingers  *|

|--18b(20)- 18b-(20)---20b(22)---20-p-17.---20-p-17.---------
|------------------------------------------------------------
|------------------------------------------------------------
|------------------------------------------------------------
|------------------------------------------------------------
|------------------------------------------------------------



|------------------------------------------------------------
|---------------------------------13---10---12--12--10-------
|-10--10--10------------10 / 12---12---11---12--12--10-------
|-------------12--------12 / 14---14---12--------------------
|------------------------------------------------------------
|------------------------------------------------------------



|------------------------------------------------------------
|--x--x--10--------------------------------------------------
|--x--x--10---x--x-------------------------------------------
|-------------------12---------------------------------------
|---------------------------------10---8---10---8------------
|---------------------------------------------------10-------


Key:

 -15b(17)-  = bend from 15th fret (whole step).

 -(17)rb(15) = release bend (back to 15th)
 
 - pb(17)rb(15) = prebend (bend the note without playing it) and release.

 -15-h-17- = hammer-on.

 -17-p-15- = pull-off.

 -17-\-15- , -15-/-17-  = slide (down and up respectively).

 -x- rake.     
Добавлено: 05.10.2013
Другие материалы по этой песне:

Страница создана 28.02.2012
http://primanota.ru/pink-floyd/another-brick-in-the-wall-part-ii-chords.htm
Привет, Гость.
Предлагаем пройти революционный курс по гитаре.
Подарок от PrimaNota.Ru, забирай!