PrimaNota.ru - самый крупный в мире бесплатный архив песенных текстов, аккордов, табулатур и нот


Pink Floyd - Animals - бас-таба, видео

Регистрация Запомнить меня
Войти через:  Facebook Google Twitter Vk Yandex Mail.ru

Pink Floyd - Animals - бас-таба, видео

Печатать
Просмотров: 320
-------------------------------------------------------------------------------
			     ANIMALS - PINK FLOYD
-------------------------------------------------------------------------------

Tabbed By : R8:31b
e-mail:

Tuning: See Specific Song

Note: Theres is NO Bass For Pigs On The Wing (Parts One or Two)


<::  DOGS  ::>

Tuning: Standard

|-----------------------------------------------------------------------------~|
|-----------------------------------------------------------------------------~|
|-5-5-x-5-5-x-5-5-x-5-5-x-1-1-x-1-1-x-1-1-x-1-1-x-0-0-x-0-0-x-0-0-x-0-0-x-----~|
|-----------------------------------------------------------------------x-4-4-~|


~---------------------|   Untill Change (3:40---|
~-----------------------------------------------|   Some Variations and differences.
~-----------------------------------------------|
~-x-4-4-x-4-4-x-4-4-----------------------------|

3:40

||-------------------------------------------------------|| x2
||*-----------------------------------------------------*||
||*-5/3----3----3----3----3----3/5----5----5----5----5--*||
||-------------------------------------------------------||

|---------------------------------||------10------10---------8-------8-----||
|---------------------------------||*-------------------------------------*||
|-5-3-1
Добавлено: 01.02.2014
Другие материалы по этой песне:
  • Аккорды и текст

Страница создана 01.02.2014
http://primanota.ru/pink-floyd/animals-chords.htm
Привет, Гость.
Предлагаем пройти революционный курс по гитаре.
Подарок от PrimaNota.Ru, забирай!