PrimaNota.ru - самый крупный в мире бесплатный архив песенных текстов, аккордов, табулатур и нот


Pink Cigar - Lady Killer Acoustic Live - таба, видео

Регистрация Запомнить меня
Войти через:  Facebook Google Twitter Vk Yandex Mail.ru

Pink Cigar - Lady Killer Acoustic Live - таба, видео

Печатать
Просмотров: 64
-------------------------------------------------------------------------------
                             LADY KILLER - Pink Cigar
-------------------------------------------------------------------------------
Tabbed by: Humphrey1999
E-mail: ladyrotten1977@gmail.com


If there are any issues please don't hesitate to email me.

This is from Pink Cigar's live acoustic session that they did August 2013. 

The Live Session: https://www.youtube.com/watch?v=wfb4SmDv5wM
Single Available to download here: https://itunes.apple.com/gb/album/lady-killer-single/id637844584
The Band: http://pinkcigarmusic.com/
          http://www.facebook.com/PinkCigar
         https://twitter.com/WeArePinkCigar

^ means bend up

Tuning: EADGBe

Intro
e|--3-3--3-3--3-3--3-3--3-3--x-3-|
B|--3-3--3-3--3-3--3-3--3-3--x-3-|
G|--3-3--3-3--3-3--3-3--3-3--x-3-| X4
D|--5-5--3-3--5-5--3-3--5-5--x-3-|
A|--5-5--3-3--5-5--3-3--5-5--x-3-|
E|--3-3--3-3--3-3--3-3--3-3--x-3-|

Verse
e|--3-3--3-3--3-3--3-3--3-3--x-3-|
B|--3-3--3-3--3-3--3-3--3-3--x-3-|
G|--3-3--3-3--3-3--3-3--3-3--x-3-| X4
D|--5-5--3-3--5-5--3-3--5-5--x-3-|
A|--5-5--3-3--5-5--3-3--5-5--x-3-|
E|--3-3--3-3--3-3--3-3--3-3--x-3-|

On the streets again and i'm feeling good looking
I'll do it all night, i know whats been cooking
Round the town you go, where you make you money
Every man wants south for your tummy

e|--6-6-6-6-6-6-6-6--3-3--3-3--3-3--3-3--3-3--x-3-|
B|--6-6-6-6-6-6-6-6--3-3--3-3--3-3--3-3--3-3--x-3-|
G|--7-7-7-7-7-7-7-7--3-3--3-3--3-3--3-3--3-3--x-3-| X2
D|--8-8-8-8-8-8-8-8--5-5--3-3--5-5--3-3--5-5--x-3-|
A|--8-8-8-8-8-8-8-8--5-5--3-3--5-5--3-3--5-5--x-3-|
E|--6-6-6-6-6-6-6-6--3-3--3-3--3-3--3-3--3-3--x-3-|

That's why, I just don't show
that you, you make me grow

e|--6----4----5-5-5-5--5-5-5-5--|
B|--6----4----5-5-5-5--8-8-8-8--|
G|--7----5----6-6-6-6--6-6-6-6--|
D|--8----6----7-7-7-7--7-7-7-7--|
A|--8----6----7-7-7-7--7-7-7-7--|
E|--6----4----5-5-5-5--5-5-5-5--|

I've been hanging around, out of your crowd, I tell you I am

Chorus
e|--3-3--3-3--3-3--3-3--3-3--x-3-|
B|--3-3--3-3--3-3--3-3--3-3--x-3-|
G|--3-3--3-3--3-3--3-3--3-3--x-3-| X4
D|--5-5--3-3--5-5--3-3--5-5--x-3-|
A|--5-5--3-3--5-5--3-3--5-5--x-3-|
E|--3-3--3-3--3-3--3-3--3-3--x-3-|

A lady killer
A lady killer
A lady killer
Tonight I'm A lady killer

Instrumental 1
e|--3-3--3-3--3-3--3-3--3-3--x-3-|--3-3--3-3--3-3--3-3--3/5--3--|
B|--3-3--3-3--3-3--3-3--3-3--x-3-|--3-3--3-3--3-3--3-3--3/5--3--|
G|--3-3--3-3--3-3--3-3--3-3--x-3-|--3-3--3-3--3-3--3-3--3/5--3--|
D|--5-5--3-3--5-5--3-3--5-5--x-3-|--5-5--3-3--5-5--3-3----------|
A|--5-5--3-3--5-5--3-3--5-5--x-3-|--5-5--3-3--5-5--3-3----------|
E|--3-3--3-3--3-3--3-3--3-3--x-3-|--3-3--3-3--3-3--3-3----------|

Verse
e|--3-3--3-3--3-3--3-3--3-3--x-3-|
B|--3-3--3-3--3-3--3-3--3-3--x-3-|
G|--3-3--3-3--3-3--3-3--3-3--x-3-| X4
D|--5-5--3-3--5-5--3-3--5-5--x-3-|
A|--5-5--3-3--5-5--3-3--5-5--x-3-|
E|--3-3--3-3--3-3--3-3--3-3--x-3-|

Down trodden dead beat and walking the streets
Make a dash, strapped for cash, pray for rain
Full of life, prowl for pussy, king of pain
Shoot the gun, drink the rum, fistful of gold that weighs a ton

e|--6-6-6-6-6-6-6-6--3-3--3-3--3-3--3-3--3-3--x-3-|
B|--6-6-6-6-6-6-6-6--3-3--3-3--3-3--3-3--3-3--x-3-|
G|--7-7-7-7-7-7-7-7--3-3--3-3--3-3--3-3--3-3--x-3-| X2
D|--8-8-8-8-8-8-8-8--5-5--3-3--5-5--3-3--5-5--x-3-|
A|--8-8-8-8-8-8-8-8--5-5--3-3--5-5--3-3--5-5--x-3-|
E|--6-6-6-6-6-6-6-6--3-3--3-3--3-3--3-3--3-3--x-3-|

its going down, in that London mist yeah yeah yeah
those boys, throw those pills


e|--6----4----5-5-5-5--5-5-5-5--|
B|--6----4----5-5-5-5--8-8-8-8--|
G|--7----5----6-6-6-6--6-6-6-6--|
D|--8----6----7-7-7-7--7-7-7-7--|
A|--8----6----7-7-7-7--7-7-7-7--|
E|--6----4----5-5-5-5--5-5-5-5--|

I've been hanging around, out of your crowd, I tell you I am

Chorus
e|--3-3--3-3--3-3--3-3--3-3--x-3-|
B|--3-3--3-3--3-3--3-3--3-3--x-3-|
G|--3-3--3-3--3-3--3-3--3-3--x-3-| X4
D|--5-5--3-3--5-5--3-3--5-5--x-3-|
A|--5-5--3-3--5-5--3-3--5-5--x-3-|
E|--3-3--3-3--3-3--3-3--3-3--x-3-|

A lady killer
A lady killer
A lady killer
Tonight I'm A lady killer

Instrumental 2

e|--5----6----5-5-5-5--5-5-5-5--|
B|--6----6----5-5-5-5--8-8-8-8--|
G|--7----7----6-6-6-6--6-6-6-6--|
D|--7----8----7-7-7-7--7-7-7-7--|
A|--5----8----7-7-7-7--7-7-7-7--|
E|--x----6----5-5-5-5--5-5-5-5--|

e|--3-3-3-3-3-3--|--3-3-3-3-3-3--|--3-3-3-3-3-3--|--3-3-3-3-3-3--|
B|--3-3-3-3-3-3--|--3-3-3-3-3-3--|--3-3-3-3-3-3--|--3-3-3-3-3-3--|
G|--5^5^5^5^5^5^-|--5^5^5^5^5^5^-|--5^5^5^5^5^5^-|--5^5^5^5^5^5^-|
D|---------------|---------------|---------------|---------------|  
A|---------------|---------------|---------------|---------------|   
E|---------------|---------------|---------------|---------------|  

e|--6-6-6-6-6-6--|--6-6-6-6-6-6--|--3-3-3-3-3-3--|--3-3-3-3-3-3--|
B|--6-6-6-6-6-6--|--6-6-6-6-6-6--|--3-3-3-3-3-3--|--3-3-3-3-3-3--|
G|--8^8^8^8^8^8^-|--8^8^8^8^8^8^-|--5^5^5^5^5^5^-|--5^5^5^5^5^5^-|
D|---------------|---------------|---------------|---------------|
A|---------------|---------------|---------------|---------------|
E|---------------|---------------|---------------|---------------|

e|--6-6-6-6-6-6--|--6-6-6-6-6-6--|--3-3-3-3-3-3--|--3-3-3-3-3-3--|
B|--6-6-6-6-6-6--|--6-6-6-6-6-6--|--3-3-3-3-3-3--|--3-3-3-3-3-3--|
G|--8^8^8^8^8^8^-|--8^8^8^8^8^8^-|--5^5^5^5^5^5^-|--5^5^5^5^5^5^-|
D|---------------|---------------|---------------|---------------|
A|---------------|---------------|---------------|---------------|
E|---------------|---------------|---------------|---------------|

e|----6----------------------------------------------------------|
B|------6--------------------------------------------------------|
G|--5-----5---3-----3-----3----5-3-------------------------------|
D|---------------5-----5-----------5-3---------------------------|
A|-------------------------------------5-3-----------------------|
E|-----------------------------------------6-5-3-----------------|

Verse
e|--3-3--3-3--3-3--3-3--3-3--x-3-|
B|--3-3--3-3--3-3--3-3--3-3--x-3-|
G|--3-3--3-3--3-3--3-3--3-3--x-3-| X4
D|--5-5--3-3--5-5--3-3--5-5--x-3-|
A|--5-5--3-3--5-5--3-3--5-5--x-3-|
E|--3-3--3-3--3-3--3-3--3-3--x-3-|

I'm the arrow dodger so cupid don't bother
I got the white Russian that's everything or nothing
If you think I'm gonna smile you got another thing coming
Heart thriller blood spiller lady killer

e|--6-6-6-6-6-6-6-6--3-3--3-3--3-3--3-3--3-3--x-3-|
B|--6-6-6-6-6-6-6-6--3-3--3-3--3-3--3-3--3-3--x-3-|
G|--7-7-7-7-7-7-7-7--3-3--3-3--3-3--3-3--3-3--x-3-| X2
D|--8-8-8-8-8-8-8-8--5-5--3-3--5-5--3-3--5-5--x-3-|
A|--8-8-8-8-8-8-8-8--5-5--3-3--5-5--3-3--5-5--x-3-|
E|--6-6-6-6-6-6-6-6--3-3--3-3--3-3--3-3--3-3--x-3-|

and i'm looking for fun
i'm sick sick sick sick sick of having none
one more time,

e|--6----4----5-5-5-5--5-5-5-5--|
B|--6----4----5-5-5-5--8-8-8-8--|
G|--7----5----6-6-6-6--6-6-6-6--|
D|--8----6----7-7-7-7--7-7-7-7--|
A|--8----6----7-7-7-7--7-7-7-7--|
E|--6----4----5-5-5-5--5-5-5-5--|

'cause I've been hanging around 
outta your crowd 
to tell you i am

Chorus
e|--3-3--3-3--3-3--3-3--3-3--x-3-|
B|--3-3--3-3--3-3--3-3--3-3--x-3-|
G|--3-3--3-3--3-3--3-3--3-3--x-3-| X4
D|--5-5--3-3--5-5--3-3--5-5--x-3-|
A|--5-5--3-3--5-5--3-3--5-5--x-3-|
E|--3-3--3-3--3-3--3-3--3-3--x-3-|

A lady killer
A lady killer
A lady killer
Tonight I'm A lady killer

e|--6----4----5-5-5-5--5-5-5-5---3--|
B|--6----4----5-5-5-5--8-8-8-8---3--|
G|--7----5----6-6-6-6--6-6-6-6---3--|
D|--8----6----7-7-7-7--7-7-7-7---5--|
A|--8----6----7-7-7-7--7-7-7-7---5--|
E|--6----4----5-5-5-5--5-5-5-5---3--|



************************************

| /   slide up
| \   slide down
| h   hammer-on
| p   pull-off
| ~   vibrato
| +   harmonic
| x   Mute note
| ^   Bend up
| pb  Pre-bend
| br  Bend release
| pbr Pre-bend release
| brb Bend release bend

************************************
Добавлено: 31.12.2015
Другие материалы по этой песне:
  • Аккорды и текст

Страница создана 31.12.2015
http://primanota.ru/pink-cigar/lady-killer-acoustic-live-chords.htm
Привет, Гость.
Предлагаем пройти революционный курс по гитаре.
Подарок от PrimaNota.Ru, забирай!