PrimaNota.ru - самый крупный в мире бесплатный архив песенных текстов, аккордов, табулатур и нот


Pinhead Gunpowder - Song Of My Returning - текст песни, таба, бас-таба, видео

Регистрация Запомнить меня
Войти через:  Facebook Google Twitter Vk Yandex Mail.ru

Pinhead Gunpowder - Song Of My Returning - текст песни, таба, бас-таба, видео

Печатать
Просмотров: 125
----------------------------------------------------------------------------
               SONG OF MY RETURNING - Pinhead  Gunpowder
____________________________________________________________________________
Tabbed by: Robbie Harper
           23:18
           27th March 2008

Email: robbiehpr_17@hotmail.co.uk

This song is from Pinhead Gunpowder's album Goodbye Ellston Avenue.

INTRO

e|-----------------------------------------------------|
B|-----------------------------------------------------|
G|------7------7------7------7---5-5-5-5-5-5-5-5-5-----|
D|---77-7--777-7--777-7--777-7---5-5-5-5-5-5-5-5-5-----|
A|---77-5--777-5--777-5--777-5---3-3-3-3-3-3-3-3-3-----|
E|---55----555----555----555---------------------------|
     **    ***    ***    ***

VERSE 1

"The weary world is waiting for ambition to be played..."
e|-------------------------------------------------------------------------|
B|-------------------------------------------------------------------------|
G|-----10--------------------------------------101010101010101010101010----|
D|-10--10--10--7---1010101010101010--77777777--101010101010101010101010----|
A|-10--8---10--7---1010101010101010--77777777--8-8-8-8-8-8-8-8-8-8-8-8-----|
E|-8-------8---5---8-8-8-8-8-8-8-8---55555555------------------------------|
                   ****************  ********

---------------------------|
---------------------------|
-121212121212121212121212--|
-121212121212121212121212--|
-101010101010101010101010--|
---------------------------|
---------------------------|

"For I am just a sailor on a ship across the land..."
e|-------------------------------------------------------------------------|
B|-------------------------------------------------------------------------|
G|-----10--------------------------------------101010101010101010101010----|
D|-10--10--10--7---1010101010101010--77777777--101010101010101010101010----|
A|-10--8---10--7---1010101010101010--77777777--8-8-8-8-8-8-8-8-8-8-8-8-----|
E|-8-------8---5---8-8-8-8-8-8-8-8---55555555------------------------------|
                   ****************  ********

---------------------------|
---------------------------|
-121212121212121212121212--|
-121212121212121212121212--|
-101010101010101010101010--|
---------------------------|
---------------------------|

CHORUS 1

"But I'll be back again no matter where I've been..."
e|--------------------------------------------------------|
B|--------------------------------------------------------|
G|-999999999999--------------------------------5-5-5-5-5--|
D|-999999999999--777777777777--333333--555555--5-5-5-5-5--|
A|-777777777777--777777777777--333333--555555--3-3-3-3-3--|
E|---------------555555555555--111111--333333-------------|


"And I'll take you in my arms and I'll tell you all I know...."
e|---------------------------------------------------------------------------|
B|---------------------------------------------------------------------------|
G|-999999999999--------------------------------------------------------------|
D|-999999999999--777777777777--333333--555555--------------------------------|
A|-777777777777--777777777777--333333--555555--------------------------------|
E|---------------555555555555--111111--333333--------------------------------|

----------------------------------------------|
----------------------------------------------|
------7------7------7------7--5-5-5-5-5-5-5-5-|
---77-7--777-7--777-7--777-7--5-5-5-5-5-5-5-5-|
---77-5--777-5--777-5--777-5--3-3-3-3-3-3-3-3-|
---55----555----555----555--------------------|
   **    ***    ***    ***

VERSE 2

"My drifting days prepare me to do battle with the night....."
e|-------------------------------------------------------------------------|
B|-------------------------------------------------------------------------|
G|-----10--------------------------------------101010101010101010101010----|
D|-10--10--10--7---1010101010101010--77777777--101010101010101010101010----|
A|-10--8---10--7---1010101010101010--77777777--8-8-8-8-8-8-8-8-8-8-8-8-----|
E|-8-------8---5---8-8-8-8-8-8-8-8---55555555------------------------------|
                   ****************  ********

---------------------------|
---------------------------|
-121212121212121212121212--|
-121212121212121212121212--|
-101010101010101010101010--|
---------------------------|
---------------------------|

"The answer lies in limbo and the harvest will be hard..."
e|-------------------------------------------------------------------------|
B|-------------------------------------------------------------------------|
G|-----10--------------------------------------101010101010101010101010----|
D|-10--10--10--7---1010101010101010--77777777--101010101010101010101010----|
A|-10--8---10--7---1010101010101010--77777777--8-8-8-8-8-8-8-8-8-8-8-8-----|
E|-8-------8---5---8-8-8-8-8-8-8-8---55555555------------------------------|
                   ****************  ********

---------------------------|
---------------------------|
-121212121212121212121212--|
-121212121212121212121212--|
-101010101010101010101010--|
---------------------------|
---------------------------|

CHORUS 2

"Yes I'll be back again no matter where I've been....."
e|----------------------------------------------------------|
B|----------------------------------------------------------|
G|-999999999999--------------------------------5-5-5555555--|
D|-999999999999--777777777777--333333--555555--5-5-5555555--|
A|-777777777777--777777777777--333333--555555--3-3-3333333--|
E|---------------555555555555--111111--333333---------------|

"And I'll take you in my arms and I'll tell you all I know..."
e|---------------------------------------------------------------------------|
B|---------------------------------------------------------------------------|
G|-999999999999--------------------------------------------------------------|
D|-999999999999--777777777777--333333--555555--------------------------------|
A|-777777777777--777777777777--333333--555555--------------------------------|
E|---------------555555555555--111111--333333--------------------------------|

-----------------------------------------------|
-----------------------------------------------|
------7------7------7------7--5555555555555555-|
---77-7--777-7--777-7--777-7--5555555555555555-|
---77-5--777-5--777-5--777-5--3333333333333333-|
---55----555----555----555---------------------|
   **    ***    ***    ***

VERSE 3

"Time must have her victory it's that I've always known..."
e|-------------------------------------------------------------------------|
B|-------------------------------------------------------------------------|
G|-----10--------------------------------------101010101010101010101010----|
D|-10--10--10--7---1010101010101010--77777777--101010101010101010101010----|
A|-10--8---10--7---1010101010101010--77777777--8-8-8-8-8-8-8-8-8-8-8-8-----|
E|-8-------8---5---8-8-8-8-8-8-8-8---55555555------------------------------|
                   ****************  ********

---------------------------|
---------------------------|
-121212121212121212121212--|
-121212121212121212121212--|
-101010101010101010101010--|
---------------------------|
---------------------------|


"With every strength remaining I will suffer one more scene..."
e|-------------------------------------------------------------------------|
B|-------------------------------------------------------------------------|
G|-----10--------------------------------------101010101010101010101010----|
D|-10--10--10--7---1010101010101010--77777777--101010101010101010101010----|
A|-10--8---10--7---1010101010101010--77777777--8-8-8-8-8-8-8-8-8-8-8-8-----|
E|-8-------8---5---8-8-8-8-8-8-8-8---55555555------------------------------|
                   ****************  ********

---------------------------|
---------------------------|
-121212121212121212121212--|
-121212121212121212121212--|
-101010101010101010101010--|
---------------------------|
---------------------------|

CHORUS 3

"Yes I'll be back again no matter where I've been..."
e|--------------------------------------------------------|
B|--------------------------------------------------------|
G|-999999999999--------------------------------5-5-5-5-5--|
D|-999999999999--777777777777--333333--555555--5-5-5-5-5--|
A|-777777777777--777777777777--333333--555555--3-3-3-3-3--|
E|---------------555555555555--111111--333333-------------|


"And I'll take you in my arms and I'll tell you all I know...."
e|---------------------------------------------------------------------------|
B|---------------------------------------------------------------------------|
G|-999999999999--------------------------------------------------------------|
D|-999999999999--777777777777--333333--555555--------------------------------|
A|-777777777777--777777777777--333333--555555--------------------------------|
E|---------------555555555555--111111--333333--------------------------------|

----------------------------------|
----------------------------------|
------7------7------7------7----5-|
---77-7--777-7--777-7--777-7----5-|
---77-5--777-5--777-5--777-5----3-|
---55----555----555----555--------|
   **    ***    ***    ***

SONG LYRICS

The weary world is waiting
For ambition to be played
Now young and not afraid
I've got to challenge
Every challenge that I know

For I am just a sailor
On a ship across the land
Let me hold your hand
To bid farewell
So I can knuckle to my knees

But I'll be back again
No matter where I've been
For it's only love
That frees the fire for burning
And I'll take you in my arms
And I'll tell you all I know
As I sing the changing songs
Of my returning

My drifting days prepare me
To do battle with the night
A phantom of the fight
I've got to conquer
All the courage of my fears

The answer lies in limbo
And the harvest will be hard
But sacred are the stars
That leave their mark upon
The fast dissolving years

Yes I'll be back again
No matter where I've been
For it's only love
That frees the fire for burning
And I'll take you in my arms
And I'll tell you all I know
As I sing the growing songs
Of my returning

Time must have her victory
It's that I've always known
But I've won or lost alone
And when a voice calls out,
"There's someone you should meet"

With every strength remaining
I will suffer one more scene
I'll gather all my dreams
And with my final breath
I'll lay them at your feet

Yes I'll be back again
No matter where I've been
For it's only love
That frees the fire for burning
And I'll take you in my arms
And I'll tell you all I know
As I sing the final song
Of my returning


DOOSH!


| /  slide up
| \  slide down
| h  hammer-on
| p  pull-off
| ~  vibrato
| +  harmonic
| x  Mute note
| *  Palm mute chord
===============================================================================
Добавлено: 18.03.2012
Другие материалы по этой песне:
  • Аккорды и текст

Страница создана 09.03.2012
http://primanota.ru/pinhead-gunpowder/song-of-my-returning-chords.htm
Привет, Гость.
Предлагаем пройти революционный курс по гитаре.
Подарок от PrimaNota.Ru, забирай!