PrimaNota.ru - самый крупный в мире бесплатный архив песенных текстов, аккордов, табулатур и нот


Pineapple Thief - Tightly Wound - таба, видео

Регистрация Запомнить меня
Войти через:  Facebook Google Twitter Vk Yandex Mail.ru

Pineapple Thief - Tightly Wound - таба, видео

Печатать
Просмотров: 89
-------------------------------------------------------------------------------
               Tightly Wound(Acoustic) - Pineapple Thief
-------------------------------------------------------------------------------
Tabbed by:Klinkokkos
Email: Kristaaken@gmail.com

Tuning: Standard E
       


Intro      First Part         Second Part w\fingerpicking
      
e|-0--0--0--0--0--2--0--2-|-0--0--0--0--0--2--0--3--0-|
B|-5--7--8--7--5--3--2--3-|-5--7--8--7--5--3--2--3--0-|
G|-5--7--9--7--5--4--2--4-|-5--7--9--7--5--4--2--4--0-|
D|-5--7--9--7--5--4--2--4-|-5--7--9--7--5--4--2--5--2-|
A|-3--5--7--5--3--2--0--2-|-3--5--7--5--3--2--0--5--2-|
E|-----------------------------------------------3--0-|

Verse
e|-0---------------------------------3----0----------------------------------|
B|-0---------------------------------4----0----------------------------------|
G|-0---------------------------------5----5----------------------------------|
D|-2---------------------------------5----5----------------------------------|
A|-2---------------------------------3----3----------------------------------|
E|-0---------------------------------3---------------------------------------|

"Look what youve done you hopeless dreamer"  

e|-0----------------------------------3-------------3----0-------------------|
B|-0----------------------------------4-------------3----0-------------------|
G|-0----------------------------------5-------------5----5-------------------|
D|-2----------------------------------5-------------5----5-------------------|
A|-2----------------------------------3-------------3----3-------------------|
E|-0----------------------------------3-------------3------------------------|

"Your poor little feet just take you where you've been before"


e|-0----------------------------3-------3-3----------------------------------|
B|-0----------------------------4-------3-3h4--------------------------------|
G|-0----------------------------5-------5-5----------------------------------|
D|-2----------------------------5-------5-5----------------------------------|
A|-2----------------------------3-------3-3----------------------------------|
E|-0----------------------------3-------3-3----------------------------------|

"Run like the wind to get your own back"


e|-0---------------------------------3--------------0------------------------|
B|-0---------------------------------4--------------0------------------------|
G|-0---------------------------------5--------------5------------------------|
D|-2---------------------------------5--------------5------------------------|
A|-2---------------------------------3--------------3------------------------|
E|-0---------------------------------3---------------------------------------|

"Look what youve done youve made me throw up on your floor"


This is the first verse, but as you can see 3 of the lines has different endings.
It goes on like this on the second verse but with a mix of the endings.Youll figure.

So the evil part just before the ref.
e|-0--0--0--0--|--0--0--0--0--0----------------------------------------------|
B|-0--3--0--0--|--0--3--0--0--0----------------------------------------------|
G|-4--0--3--4--|--4--0--3--4--4----------------------------------------------|
D|-2--2--2--2--|--2--2--2--2--2----------------------------------------------|
A|-2--2--2--2--|--2--2--2--2--2----------------------------------------------|
E|-0--0--0--0--|--0--0--0--0--3----------------------------------------------|


Ref-same pattern as intro

e|-0--0--0--0--0--2--0--2-|-0--0--0--0--0--2--0--3--0-|
B|-5--7--8--7--5--3--2--3-|-5--7--8--7--5--3--2--3--0-|
G|-5--7--9--7--5--4--2--4-|-5--7--9--7--5--4--2--4--0-|
D|-5--7--9--7--5--4--2--4-|-5--7--9--7--5--4--2--5--2-|
A|-3--5--7--5--3--2--0--2-|-3--5--7--5--3--2--0--5--2-|
E|-----------------------------------------------3--0-|
"Weve lost our time no time"... 


************************************

| /   slide up
| \   slide down
| h   hammer-on
| p   pull-off
| ~   vibrato
| +   harmonic
| x   Mute note
| b   Bend
| pb  Pre-bend
| br  Bend release
| pbr Pre-bend release
| brb Bend release bend

************************************
Добавлено: 08.07.2012
Другие материалы по этой песне:
  • Аккорды и текст

Страница создана 08.07.2012
http://primanota.ru/pineapple-thief/tightly-wound-chords.htm
Привет, Гость.
Предлагаем пройти революционный курс по гитаре.
Подарок от PrimaNota.Ru, забирай!