PrimaNota.ru - самый крупный в мире бесплатный архив песенных текстов, аккордов, табулатур и нот


Pineapple Thief - The Bitter Pill - аккорды и текст, видео

Регистрация Запомнить меня
Войти через:  Facebook Google Twitter Vk Yandex Mail.ru

Pineapple Thief - The Bitter Pill - аккорды и текст, видео

Печатать
Просмотров: 82
The Bitter Pill
Pineapple Thief
                                      Artist - Pineapple Thief
                                     **************************
                                       Song - The Bitter Pill
                                      ************************
                                    Album - Variations on a Dream
                                   *******************************


A7sus - 002030
Asus  - 002230
Em7   - 020000
Dm7   - 000211


Piano Intro Chords
*******************
Dm  C  Bb  X3

00:49
Verse 1
********
Am               G          F
  And time stands  still, oh no,
Am        G         F
  A bitter  pill, we know,
Am         G           F 
  And never  fill, this hole

01:33
Chorus
*******
Asus            Am                F    Am     A7sus
And yeah, we'll breath again, with you In the end

Asus            Am                F    C            Am
And yeah, we'll breath again, with you In the end

Am

02:10
Verse 2
********
Am           G             F
  But its not  dark, we're  made for this,
Am          G             F
  But it's a  part, we'll  always miss

02:39
Chorus
*******
Dm              C      G         Dm    C      G               
And yeah, we'll breath again, with you In the end

Dm              C      G         Dm    C      G               
And yeah, we'll breath again, with you In the end


Am

03:17
Am  Em7  Dm7 X2


03:45
Chorus
*******
Dm              C      G         Dm    C      G               
And yeah, we'll breath again, with you In the end

Dm              C      G         Dm    C      G               
And yeah, we'll breath again, with you In the end


Am


Play This Picking Through The Chorus
*************************************
[-12--12--12--12--|-10--10--10--10---|-8--8--8--8---|-7-7-7-7---|
[---13--13--13-13-|---12--12--12--12-|--10-10-10-10-|--8-8-8-8--|
[-----------------|------------------|--------------|-----------|
[-----------------|------------------|--------------|-----------|
[-----------------|------------------|--------------|-----------|
[-----------------|------------------|--------------|-----------|


[-13--13--13--13--13--13--13--13---|-12--12--12--12---|-10--10--10--10----|
[---15--15--15--15--15--15--15--15-|---13--13--13--13-|---12--12--12--12--|
[----------------------------------|------------------|-------------------|
[----------------------------------|------------------|-------------------|
[----------------------------------|------------------|-------------------|
[----------------------------------|------------------|-------------------|X2


[-8--8--8--8--8--8--8--8--8--8--8--8--8--8--8--8----|
[--10-10-10-10-10-10-10-10-10-10-10-10-10-10-10-10--|
[---------------------------------------------------|
[---------------------------------------------------|
[---------------------------------------------------|
[---------------------------------------------------|


Great Tune..... 
Добавлено: 17.07.2013
Другие материалы по этой песне:
  • Аккорды и текст

Страница создана 17.07.2013
http://primanota.ru/pineapple-thief/the-bitter-pill-chords.htm
Привет, Гость.
Предлагаем пройти революционный курс по гитаре.
Подарок от PrimaNota.Ru, забирай!