PrimaNota.ru - самый крупный в мире бесплатный архив песенных текстов, аккордов, табулатур и нот


Pineapple Thief - My Debt To You - таба, видео

Регистрация Запомнить меня
Войти через:  Facebook Google Twitter Vk Yandex Mail.ru

Pineapple Thief - My Debt To You - таба, видео

Печатать
Просмотров: 92
                                     Artist - Pineapple Thief
                                    **************************
                                      Song - My Debt to You
                                     ***********************
                                     Album - Tightly Unwound
                                    *************************

Organ
******
Verse 1
********
   Am     F     Am
We grow older, older
           Dm        G7
A little closer, a little closer
         Am     F       Am
And you stay, fallen, fallen
        Dm                         C   
And its too late, its too late, now

00:48
Acoustic
*********
Chorus
*******
 Am        F       Am      C
Here's my debt to you
             Am   F          Am      C
I wanted to say I breath for you
              Dm                      Em
But you are a world away, a world away

01:32
Verse 2
********
Picking Section
****************
    Am  X4       F  X8      Dm  X4       G  X2        X2
[-----------|--------0--|--------5--|--------7---------7--]
[--------1--|------1----|------6----|------8---------8----]
[------2----|----2------|----7------|----7---------9------]X2
[----2------|--3--------|--7--------|--9---------9--------]
[--0--------|-----------|-----------|---------------------]
[-----------|-----------|-----------|---------------------]

    Am  X8
[-----------]
[--------1--]
[------2----]
[----2------]on the 
[--0--------]2nd time
[-----------]

Verse 2
********
 Am           F  
Left in the same walls, the same walls
         Dm                G
Can you see them, can you see them
 Am           F
Left on the long wall, the long wall
             Dm                   G        Am
They didn't need to, they didn't need to, for me

02:20
Chorus
*******
 Am        F       Am      C
Here's my debt to you
             Am          F   Am      C
I wanted to say I breath for you
              Dm                      Em
But you are a world away, a world away



03:00
[--------3--------0--------3------0----------------------]
[------3--------1--------3----------3------3-1------1-0--]
[----2--------2--------2--------2--------2--------2------]
[--2--------2--------2--------2--------2--------2--------]
[--------------------------------------------------------]
[--------------------------------------------------------]
|                                                        |                         
|Small Guitar Solo                                       |
[--12-12-15-----12--12-15-15--12-------12-------12-------]
[------------15------------------15-15----13-13----12----]
[--------------------------------------------------------]
[--------------------------------------------------------]
[--------------------------------------------------------]
[--------------------------------------------------------]


03:08
Picking Section - Keyboard Solo
********************************
    Am  X4       F  X8      Dm  X4       G  X2        X2
[-----------|--------0--|--------5--|--------7---------7--]
[--------1--|------1----|------6----|------8---------8----]
[------2----|----2------|----7------|----7---------9------]X2
[----2------|--3--------|--7--------|--9---------9--------]
[--0--------|-----------|-----------|---------------------]
[-----------|-----------|-----------|---------------------]

    Am  X8
[-----------]
[--------1--]
[------2----]
[----2------]on the 
[--0--------]2nd time
[-----------]

03:56
Chorus
*******
 Am        F       Am      C
Here's my debt to you
            Am           F   Am      C
I wanted to say I breath for you
              Dm                      Em
But you are a world away, a world away

Play This Through The Chorus, As well as strummimg the Chords
**************************************************************
[--------------------------------------------------------------------------]
[-------10-----10-----10-----10-----10-----10-----10-----10-----10-----10--]
[-----9------9------9------9------9------9------9------9------9------9-----]
[--10-----10-----10-----10-----10-----10-----10-----10-----10-----10-------]
[--------------------------------------------------------------------------]
[--------------------------------------------------------------------------]

[------------------------------------------]
[-----------10-----10-----10-----10-----10-]
[----9----9------9------9------9------9----]
[-10---10-----10-----10-----10-----10------]
[------------------------------------------]
[------------------------------------------]

[---------------------------------------]
[-------12-----12-----12-----12-----12--]Play
[-----9------9------9------9------9-----]All
[--10-----10-----10-----10-----10-------]2 Times
[---------------------------------------]
[---------------------------------------]


04:36                                                            s
[-12--12--12--12--12--12--12--12--12--12--12--12--12--12--12---12\---------]
[--------------------------------------------------------------------------]
[--------------------------------------------------------------------------]
[----9---9---9---9---9---9---9---9---9---9---9---9---9---9---9-------------]
[--------------------------------------------------------------------------]
[--------------------------------------------------------------------------]

04:44
Verse 3
********
Picking Section
****************
 Am         F
And I grow older, older
          Dm               G
A little closer, a little closer To you

    Am  X4       F  X8      Dm  X4       G  X2        X2
[-----------|--------0--|--------5--|--------7---------7--]
[--------1--|------1----|------6----|------8---------8----]
[------2----|----2------|----7------|----7---------9------]
[----2------|--3--------|--7--------|--9---------9--------]
[--0--------|-----------|-----------|---------------------]
[-----------|-----------|-----------|---------------------]


Great Tune....,,,
Добавлено: 28.08.2013
Другие материалы по этой песне:
  • Аккорды и текст

Страница создана 28.08.2013
http://primanota.ru/pineapple-thief/my-debt-to-you-chords.htm
Привет, Гость.
Предлагаем пройти революционный курс по гитаре.
Подарок от PrimaNota.Ru, забирай!