PrimaNota.ru - самый крупный в мире бесплатный архив песенных текстов, аккордов, табулатур и нот


Pineapple Thief - Keep Dreaming - таба, видео

Регистрация Запомнить меня
Войти через:  Facebook Google Twitter Vk Yandex Mail.ru

Pineapple Thief - Keep Dreaming - таба, видео

Печатать
Просмотров: 103
                              Artist - Pineapple Thief
                             **************************
                               Song - Keep Dreaming
                              **********************
                           Album - Variations on a Dream
                          *******************************
                                                    
                                                                           
Acoustic
*********

Section 1    Play This Through Verses
**********   ========================
Verse 1
********
           I've been up        all          night. 
           I've seen things    that         frighten me.
           Tell me             it's         alright.
           Tell me,            you'll       stay with me.
  Dm                  G                   Am
[--------1-3-1------|----------0--------|----------0---------------0-------]
[------3-------3----|--------3---3------|--------1---1-----------1---1-----]
[----2-----------2--|------0-------0----|------2-------2-------2-------2---]
[--0----------------|----0-----------0--|----2-----------2---2-----------2-]
[-------------------|-------------------|--0---------------0---------------]
[-------------------|--3----------------|----------------------------------]


Chorus
*******

  Keep                        Dreaming           your
  Keep                        Breathing          your
  F/A                         Am7
[--------0-----------0------|--------0-----------0------]
[------1---1-------1---1----|------1---1-------1---1----]
[----2-------2---2-------2--|----2-------2---2-------2--]
[--3-----------3------------|--0-----------0------------]
[---------------------------|---------------------------]
[---------------------------|---------------------------]

   soul is not               leaving. 
   soul is not               leaving.                 
  F/A                         Am7
[--------0-----------0------|--------0-----------0------]
[------1---1-------1---1----|------1---1-------1---1----]
[----2-------2---2-------2--|----2-------2---2-------2--]
[--3-----------3------------|--0-----------0------------]
[---------------------------|---------------------------]
[---------------------------|---------------------------] 



Play Section 1
**************
Woodwind Solo   
************** 



Verse 2
********          
           I've been awake    all            night.
           Hoping             you'll         frighten me. 
           Keep me from       shouting out   this time
           Stop me from seeing things not    meant for me
  Dm                  G                   Am
[--------1-3-1------|----------0--------|----------0---------------0-------]
[------3-------3----|--------3---3------|--------1---1-----------1---1-----]
[----2-----------2--|------0-------0----|------2-------2-------2-------2---]
[--0----------------|----0-----------0--|----2-----------2---2-----------2-]
[-------------------|-------------------|--0---------------0---------------]
[-------------------|--3----------------|----------------------------------]



Chorus   
*******
Keep dreaming, your soul is not leaving.  
Keep breathing, your soul is not leaving.


Play Section 1
**************
Trumpet Solo
*************


Chorus   
*******
Keep dreaming, your soul is not leaving. 
Keep breathing, your soul is not leaving. X2 1/2 times



Nice Simple Tune..........
Добавлено: 18.10.2013
Другие материалы по этой песне:
  • Аккорды и текст

Страница создана 18.10.2013
http://primanota.ru/pineapple-thief/keep-dreaming-chords.htm
Привет, Гость.
Предлагаем пройти революционный курс по гитаре.
Подарок от PrimaNota.Ru, забирай!