PrimaNota.ru - самый крупный в мире бесплатный архив песенных текстов, аккордов, табулатур и нот


Pinback - X I Y - текст песни, бас-таба, видео

Регистрация Запомнить меня
Войти через:  Facebook Google Twitter Vk Yandex Mail.ru

Pinback - X I Y - текст песни, бас-таба, видео

Печатать
Просмотров: 103
This song is all chords not single notes like most bass lines.

VERSE
G--17--17--16--14--12--14/16-|
D--14--14--14----------------|
A--12--12--12--10--10--10----|
E----------------------------|

G--17--17--16--12--12--14/16-|
D--14--14--14--10--10--12----|
A--12--12--12--8---8---10----|
E----------------------------|

CHORUS
G--11--12--14--11--12--14-|
D--14--10--12--14--10--12-|
A--12--8---10--12--8---10-|
E--10----------10---------|

ENDING
G--14--14--14--14--14--14--14--14--14--14--14--14-|
D--12--12--12--12--12--12--12--12--12--12--12--12-|
A--10--10--10--10------------------13--13--13--13-|
E------------------13--13--13--13-----------------|
Добавлено: 11.06.2015
Другие материалы по этой песне:
  • Аккорды и текст

Страница создана 31.05.2012
http://primanota.ru/pinback/x-i-y-chords.htm
Привет, Гость.
Предлагаем пройти революционный курс по гитаре.
Подарок от PrimaNota.Ru, забирай!