PrimaNota.ru - самый крупный в мире бесплатный архив песенных текстов, аккордов, табулатур и нот


Pinback - Walters - текст песни, таба, видео

Регистрация Запомнить меня
Войти через:  Facebook Google Twitter Vk Yandex Mail.ru

Pinback - Walters - текст песни, таба, видео

Печатать
Просмотров: 87
-------------------------------------------------------------------------------
                             Walters - Pinback
-------------------------------------------------------------------------------
Tabbed by: Justin R
E-mail: sdjustinr@gmail.com

Tuning: Drop D

I mix up bass and guitar sometimes but I'm happy with this version of Walters:

e|----------------------------------------------------------------------|
B|.--------------------------------------------------------------------.|
G|--2-----0----------------------------------------2--------------------|
D|----------4---------0---0---0---0-----------4-------------------------|
A|.---3-3-----3-3-5-2-------2---0-----5---5-----5------5---5----5---5--.|
D|----------------------------------0-------0--------0-------0----------|
      "You    made    your   mark                     on me...."

e|-----------------------------------|
B|-----------------------------------|
G|-----------------------------------|
D|--8-8-----8-8-----8-8-----8-8------|
A|------6-6-----6-8-----5-5-----5-5--|
D|-----------------------------------|
   ^staccato^ 
   "Larry climbs into his lawn chair, waves her goodbye..."

  After a bit this part plays:
e|-------------------|
B|-------------------|
G|----------0--------|
D|--8---3------------|
A|----5-------3-1/5--|
D|--------5----------|
  "Climbs until he can't think, can't hear himself......."

Distorted (and then clean during the outro):
e|---------------------------------------------|
B|---------------------------------------------|
G|---------------------------------------------|
D|--8--8----8--8---x-x-8----8--8----8--8-------|
A|--6--6----6--6---x-x-6----5--5----8--8--5-5--|
D|--------------------------5--5----8--8--0-0--|
  "Get me down...."
  "Went out on a hike and he never came back again"

************************************

| /   slide up
| \   slide down
| h   hammer-on
| p   pull-off
| ~   vibrato
| +   harmonic
| x   Mute note
| b   Bend
| pb  Pre-bend
| br  Bend release
| pbr Pre-bend release
| brb Bend release bend

************************************
Добавлено: 11.06.2015
Другие материалы по этой песне:

Страница создана 25.02.2012
http://primanota.ru/pinback/walters-chords.htm
Привет, Гость.
Предлагаем пройти революционный курс по гитаре.
Подарок от PrimaNota.Ru, забирай!