PrimaNota.ru - самый крупный в мире бесплатный архив песенных текстов, аккордов, табулатур и нот


Pinback - Torch - таба, видео

Регистрация Запомнить меня
Войти через:  Facebook Google Twitter Vk Yandex Mail.ru

Pinback - Torch - таба, видео

Печатать
Просмотров: 114
Уроки эстрадного вокала в Санкт-Петербурге
-------------------------------------------------------------------------------
                             Torch - Pinback
-------------------------------------------------------------------------------
Tabbed by: Justin R
E-mail: sdjustinr@gmail.com

Tuning: Standard



Intro:
e|---------------------------------------------|
B|---------------------------------------------|
G|---6----4-------------------6----4-----------|
D|---6----4----6---6---6------6----4----6---6--|
A|-------------4------------------------4------|
E|-----------------7---4------0-------------6--|

Verse:
e|-----------------------------------------------|
B|--9-9-----7-7----------------------------------|
G|------8-8-----9-9-8----------------------------|
D|-----------------------------------------------|
A|-------------------------------2-----------2---|
E|-------------------------------4-----------4---|
    . . . . . . . . .
   "Circles and squares      surround   us..  "

Occasionally this little ditty plays:
e|---------------------------------------|
B|-----7---4---------0-------------------|
G|---6---6-------------------------------|
D|-----------6-----4-----4--6------------|
A|------------------------------4-----2--|
E|---------------------------------------|

chorus:
e|-------------------------------------------------------------|
B|-------------------------------------------------------------|
G|--4----4----3-----3--3----9-9-8-8-9-9-8-8-9-9-8-8-6-6-8-8----|
D|--6----6----1-----1--1----9-9-8-8-9-9-8-8-9-9-8-8-6-6-8-8----|
A|--6----6----1-----1--1----7-7-6-6-7-7-6-6-7-7-6-6-4-4-6-6----|
E|--4----4----2-----2--2----0-0-0-0-0-0-0-0-0-0-0-0-0-0-0-0----|
    "Get close to me, I push away .."

e|--------------------------|
B|--------------------------|
G|---6----4-----------------|
D|---6----4----6---6---6----|
A|-------------4------------|
E|-----------------7---4----|
   "The circles and squares.."



************************************

| /   slide up
| \   slide down
| h   hammer-on
| p   pull-off
| ~   vibrato
| +   harmonic
| x   Mute note
| b   Bend
| pb  Pre-bend
| br  Bend release
| pbr Pre-bend release
| brb Bend release bend

************************************
Добавлено: 11.06.2015
Вам также может быть интересно:
Другие материалы по этой песне:
  • Аккорды и текст

Страница создана 11.06.2015
http://primanota.ru/pinback/torch-chords.htm
Привет, Гость.
Предлагаем пройти революционный курс по гитаре.
Подарок от PrimaNota.Ru, забирай!