PrimaNota.ru - самый крупный в мире бесплатный архив песенных текстов, аккордов, табулатур и нот


Pinback - Offcell - текст песни, таба, видео

Регистрация Запомнить меня
Войти через:  Facebook Google Twitter Vk Yandex Mail.ru

Pinback - Offcell - текст песни, таба, видео

Печатать
Просмотров: 119


Song: Offcell
Artist: Pinback
Album: Offcell
Tabed by: Jakerz


MAIN:Do this twice
e------------------------------------------------
b------------------------------------------------
g------------------------------------------------
d----------0----------2/4------------------------
a-----4-----------0------------------------------
E--4----4------0---------------------------------


Then repeat from the top over again and do this 4 times
e------------------------------------------------
b------------------------------------------------
g--------2---------------------------------------
d-----2-----------3/5----------------------------
a--0-----------3---------------------------------
E-----------3------------------------------------


Repeat this eight times and then start back to MAIN
e------------------------------------------------
b------------------------------------------------
g------------------------------------------------
d-----------------------3-4-4-4-4----------------
a--5---5-----------------------------------------
E-------------3---3------------------------------


Ok this part is also in the begining of Microtonic 
Wave but you can hear this in the background.  It 
has a (ROTOUIBE EFFECT) which makes it sound really cool.
e------------------------------------------------
b---7-----9-----4--------------------------------
g---7-----9-----4--------------------------------
d---7-----9-----4--------------------------------
a---5-----7-----2--------------------------------
E------------------------------------------------


Добавлено: 11.02.2014
Другие материалы по этой песне:
  • Аккорды и текст

Страница создана 17.04.2012
http://primanota.ru/pinback/offcell-chords.htm
Привет, Гость.
Предлагаем пройти революционный курс по гитаре.
Подарок от PrimaNota.Ru, забирай!