PrimaNota.ru - самый крупный в мире бесплатный архив песенных текстов, аккордов, табулатур и нот


Pinback - Off By 50 - бас-таба, видео

Регистрация Запомнить меня
Войти через:  Facebook Google Twitter Vk Yandex Mail.ru

Pinback - Off By 50 - бас-таба, видео

Печатать
Просмотров: 76
Уроки эстрадного вокала в Санкт-Петербурге
Intro
G:-------------------------------------|-----------------------------|
D:-----------7/------------------------|--------65656565-------------|
A:------7-9-------11---7---------------|----------------------7------|
E:---5----------------------7----------|-----7-------------------5---|

Chorus/ Verse
G :--------------------------------------|----------------|
D :---------------6-6-4-4----------------|----------------|
A :--------------------------7-7-7-------|---7--66--------|
E :---4-4-4--4---------------------------|-----------6-6--|

Interlude/Interlude 2
G:------------13---13-------11---11-------|-------9---9-------9-8---------|
D:-------9-9------------9-9---------------|--9-9---------9-9--------------|
A:----------------------------------------|-------------------------------|
E:----------------------------------------|-------------------------------|


Interlude 2
G :---------------------------------------|------------------|
D :-------------6------4------------------|------------------|
A :-------------------------------7-------|---7--6-----------|
E :---4-----------------------------------|-----------6------|
Добавлено: 18.08.2013
Другие материалы по этой песне:
  • Аккорды и текст

Страница создана 18.08.2013
http://primanota.ru/pinback/off-by-50-chords.htm
Привет, Гость.
Предлагаем пройти революционный курс по гитаре.
Подарок от PrimaNota.Ru, забирай!