PrimaNota.ru - самый крупный в мире бесплатный архив песенных текстов, аккордов, табулатур и нот


Pinback - Non-photo Blue - текст песни, таба, видео

Регистрация Запомнить меня
Войти через:  Facebook Google Twitter Vk Yandex Mail.ru

Pinback - Non-photo Blue - текст песни, таба, видео

Печатать
Просмотров: 170
--------------------------------------------------
             Non-Photo Blue - Pinback
--------------------------------------------------
Tabbed by: Matty C
Email: Happyquakiduck@msn.com

Tuning: Standard EADGBE

Intro
e|---------------------------------------------------------------|
B|---------------------------------------------------------------|
G|---------------------------------------------------------------|
D|----44----4----44----4-----------------------------------------|
A|-------55---------55-------------------------------------------|
E|-33---------33-------------------------------------------------|


Verse
e|----3------3---------7--------3--------------------------------|
B|----3------3---------7--------3--------------------------------|
G|----4------4---------7--------4--------------------------------|
D|----5------5---------9--------5--------------------------------|
A|----5------5------5--9-9-77-5-5--------------------------------|
E|-33-x-5-33-x-5-77----x--------x-5------------------------------|


Chorus
e|---------------------------------------------------------------|
B|-----------7-7-x-x---------------------------------------------|
G|--4-7-2-4~-7-7-6-6--4-7-2-4~-11-9-----Repeat-------------------|
D|--5-5-5-5~-7-7-7-7--5-5-5-5~-12-11-----------------------------|
A|-----------5-5-4-4---------------------------------------------|
E|---------------------------------------------------------------|

Break Riff
This guitar has a bit of gain on it, just for crunch.
e|---------------------------------------------------------------|
B|---------------------------------------------------------------|
G|---------------------------------------------------------------|
D|---------------------------------------------------------------|
A|---------------------------------------------------------------|
E|--/7-0~--------------------------------------------------------|

"Crayon past line, stay after school"
e|---------------------------------------------------------------|
B|---------------------------------------------------------------|
G|-9/11\7-7/9\4--7\4---------------------------------------------|
D|-------------------4/7-----------------------------------------|
A|---------------------------------------------------------------|
E|---------------------------------------------------------------|

The following two riffs are played on a piano, but I transposed them for guitar.

"Crossword filled in, Non-Photo Blue
e|---------------------------------------------------------------|
B|-8-7---5-7------5-7---5-7---5-7--------------------------------|
G|-----7-----4--7-----7-----7-----7-4----------------------------|
D|---------------------------------------------------------------|
A|---------------------------------------------------------------|
E|---------------------------------------------------------------|

"So now they'll find you"
e|-7-5-----------------------------------------------------------|
B|-----8-7-5-7----5-7---5-7-8-7----------------------------------|
G|--------------7-----7---------7-4------------------------------|
D|---------------------------------------------------------------|
A|---------------------------------------------------------------|
E|---------------------------------------------------------------|

Repeat those until:

"Can't go through this now, leaving a message.."

Which utilizes the chorus riff.

Continue with the chorus until this break riff at the end:

e|---------------------------------------------------------------|
B|---------------------------------------------------------------|
G|---------------------------------------------------------------|
D|---------------------------------------------------------------|
A|---------------------------------------------------------------|
E|--/7-0~-/3~--/7-0~-/3~-----------------------------------------|


Fairly simple song. Email me with any requests. I would be happy to contribute.

Questions, comments, compliments, or corrections send to Happyquakiduck@msn.com

This one is dedicated to Jim and Mary and their baby, Megan Elizabeth, on the way.
Congratulations!

Matty C <3
Добавлено: 29.04.2012
Другие материалы по этой песне:
  • Аккорды и текст

Страница создана 29.04.2012
http://primanota.ru/pinback/non-photo-blue-chords.htm
Привет, Гость.
Предлагаем пройти революционный курс по гитаре.
Подарок от PrimaNota.Ru, забирай!