PrimaNota.ru - самый крупный в мире бесплатный архив песенных текстов, аккордов, табулатур и нот


Pinback - Hurley - текст песни, таба, видео

Регистрация Запомнить меня
Войти через:  Facebook Google Twitter Vk Yandex Mail.ru

Pinback - Hurley - текст песни, таба, видео

Печатать
Просмотров: 195
this is as much of the song as i cared to figure out. its my first tab and i couldnt 
out an easy way to write tabs. plus, im only 14.

e|------------------------||x4  ------------------------||x3
B|------------------------||    ---------------3/5---3--||
G|------------------------||    ---------0-2------------||
D|-------0---------2---0--||    -----2-4----------------||
A|---0h2---0h2p0----------||    ---0--------------------||
D|-0-------------0---0----||    -0-----------0-----0----||

e|------------------------|  -----------------------||x3
B|----------------3/5---3-|  -----------------------||
G|------------------------|  -----------------------||
D|-----4-6-4--------------|  -------3-1--------6-4--||
A|---4-------5------------|  -1-1--------4-4--------||
D|-4------------0-----0---|  -1---1------4---4------||

e|------------------------||x3  ------------------------||x2
B|------------------------||    ------------------------||
G|-----------------2---0--||    ------0-4--------0-2----||
D|-------0----------------||    ----5----------3------3-||
A|---0h2---0h2p0----------||    --3----------1----------||
D|-0-------------0---0----||    ------------------------||

cant figure out the next part, but this fits with the song.
you dont have to palm mute all of it, openning some notes sounds good.
e|-------------------------------|x A lot
B|-------------------------------|
G|-------------------------------|
D|------1-----3-------4---6-4----|
A|-------------------------------|
D|--1-1---1-3---3-3-4---4--------|
 pm . . . . . . . . . . . . .
Добавлено: 22.07.2012
Другие материалы по этой песне:
  • Аккорды и текст

Страница создана 28.03.2012
http://primanota.ru/pinback/hurley-chords.htm
Привет, Гость.
Предлагаем пройти революционный курс по гитаре.
Подарок от PrimaNota.Ru, забирай!