PrimaNota.ru - самый крупный в мире бесплатный архив песенных текстов, аккордов, табулатур и нот


Pinback - Devil You Know - таба, видео

Регистрация Запомнить меня
Войти через:  Facebook Google Twitter Vk Yandex Mail.ru

Pinback - Devil You Know - таба, видео

Печатать
Просмотров: 77
-------------------------------------------------------------------------------
                             Devil You Know - Pinback
-------------------------------------------------------------------------------
Tabbed by: Justin R
E-mail: sdjustinr@gmail.com

Tuning: Drop D


This is the main riff. It starts out palm muted:


e|----------------------------------------------------|
B|----------------------------------------------------|
G|----------------------------------------------------|
D|--------------3--3--2--2----------------------------|
A|--------5--5----------------3--3--3-3-3--5----------|
D|--0--0--------------------------------------5--7----|

 Verse:
e|---------------------------------------------|----------------------------------------------|
B|---------------------------------------------|----------------------------------------------|
G|---------------------------------------------|----------------------------------------------|
D|----3--3-----2--2-----2--2--2-2-2--2--2--3---|----3--3-----2--2-----------------------------|
A|----5--5-----5--5-----3--3--3-3-3--3--3--3---|----5--5-----5--5-----2--2---2-2-2---2--3--5--|
D|---------------------------------------------|----------------------5--5---5-5-5---5--5--5--|
 "It's     the devil and    I can't see you ..... "
e|---------------------------------------------|----------------------------------------------|
B|---------------------------------------------|----------------------------------------------|
G|---------------------------------------------|----------------------------------------------|
D|----3--3-----2--2-----2--2--2-2-2--2--2--3---|----3--3-----2--2-----------------------------|
A|----5--5-----5--5-----3--3--3-3-3--3--3--3---|----5--5-----5--5-----2--2---2-2-2---2--2--2--|
D|---------------------------------------------|----------------------5--5---5-5-5---5--5--5--|


Chorus:
e|------------------------------------------------------------------------------------------|
B|.----------------------------------------------------------------------------------------.|
G|------------------------------------------------------------------------------------------|
D|------------------------------------------------------------------------------------------|
A|.--------5--5--------5--5--------3--3-----3----------3--3-------------3--3--0------------.|
D|---3--3-----------3--------2--2--------2-----5/7--7-----------5/7--7-----------6--5--4----|
   "Something       will       be               on the minds   so      undeveloped"


Solo:
e|-----------------------------------------|
B|------------------------6------5h6-------|
G|--7--5----4--4/5-----5-----4h5-----4h5---|
D|--0--0------------7----------------------|
A|-----------------------------------------|
D|-----------------------------------------|

e|-----------------------------------------|
B|------------------------6------5h6-------|
G|--7--5----4--4/5-----5-----4h5-----4h5-7-|
D|--0--0------------7----------------------|
A|-----------------------------------------|
D|-----------------------------------------|


************************************

| /   slide up
| \   slide down
| h   hammer-on
| p   pull-off
| ~   vibrato
| +   harmonic
| x   Mute note
| b   Bend
| pb  Pre-bend
| br  Bend release
| pbr Pre-bend release
| brb Bend release bend

************************************
Добавлено: 11.06.2015
Другие материалы по этой песне:
  • Аккорды и текст

Страница создана 11.06.2015
http://primanota.ru/pinback/devil-you-know-chords.htm
Привет, Гость.
Предлагаем пройти революционный курс по гитаре.
Подарок от PrimaNota.Ru, забирай!