PrimaNota.ru - самый крупный в мире бесплатный архив песенных текстов, аккордов, табулатур и нот


Pinback - Byzantine - таба, бас-таба, видео

Регистрация Запомнить меня
Войти через:  Facebook Google Twitter Vk Yandex Mail.ru

Pinback - Byzantine - таба, бас-таба, видео

Печатать
Просмотров: 81
transcribed by: Eric Whited

Artist: Pinback
song: byzantine
album: unknown


(verse)
1st guitar (slightly distorted sounding)
e|---------------------------------------------------------------------
b|---------------------------------------------------------------------
g|---------------------------------------------------------------------
d|----10--8-8-----------4----4-----------------------------------------
a|-5-----------5--5--5-------------------------------------------------
E|---------------------------------------------------------------------


2nd guitar comes over with this twice
e|---------------------------------------------------------------------
b|---------------------------------------------------------------------
g|-5--7---5------5-----------------------------------------------------
d|-----------7------5-------5--7-------5--4----------------------------
a|-----------------------5----------5----------------------------------
E|---------------------------------------------------------------------
then this twice
  {palm muted -------------------------------}  
e|---------------------------------------------------------------------
b|---------------------------------------------------------------------
g|---------------------------------------------------------------------
d|---------------------------------------------------------------------
a|-13-12-13-10---13-12-10-8-----13-12-10-8-0---------------------------
E|---------------------------------------------------------------------  

this part im not sure about it, but this is what i got
e|---------------------------------------------------------------------
b|---------------------------------------------------------------------
g|---------7----7/5--5-------------------------------------------------
d|-5---8-------------5-------------------------------------------------
a|---------------------------------------------------------------------
E|---------------------------------------------------------------------

guitar 1
e|---------------------------------------------------------------------
b|---------------------------------------------------------------------
g|---------------------------------------------------------------------
d|---------------------------------------------------------------------
a|-5---5---5---5---5---5---5---5---------------------------------------
E|---6---6---6---6---6---6---6---6-------------------------------------
when voice comes in it changes to:
e|---------------------------------------------------------------------
b|---------------------------------------------------------------------
g|---------------------------------------------------------------------
d|---------------------------------------------------------------------
a|-5---5---5---5---5---5---8---6---------------------------------------
E|---6---6---6---6---6---6---6---6-------------------------------------


guitar 2
e|---------------------------------------------------------------------
b|---------------------------------------------------------------------
g|-------5----------------5--------------0-----0-----------------------
d|-7-5-7---7-5-3-0--7-5-7---7-5-3-0--3/5---5/8---5-0-------------------
a|---------------------------------------------------------------------
E|---------------------------------------------------------------------
when voice comes in just repeat this
e|---------------------------------------------------------------------
b|---------------------------------------------------------------------
g|---------------------------------------------------------------------
d|-----0-----0---------------------------------------------------------
a|-3/5---5/8---5-0-----------------------------------------------------
E|---------------------------------------------------------------------

guitar 2 (part before ending verse)
e|---------------------------------------------------------------------
b|---------------------------------------------------------------------
g|---------------------------------------------------------------------
d|-5----7---------------5---7------------------------------------------
a|---------5---6---5------------5---6---5------------------------------
E|---------------------------------------------------------------------


"He who joyfully marches in rank and file has already earned my contempt;
they have been given a brain by mistake, since for them, the spinal cord
would suffice."
-albert einstein

"Wise man once say, forgiveness is divine, but never pay full price for
late pizza."

-Michaelangelo (The Turtle)

Get busy living, or Get busy dying.  Either way, get the hell outta my
kitchen!


________________________________________________________________________________
     
Добавлено: 09.07.2013
Другие материалы по этой песне:
  • Аккорды и текст

Страница создана 09.07.2013
http://primanota.ru/pinback/byzantine-chords.htm
Привет, Гость.
Предлагаем пройти революционный курс по гитаре.
Подарок от PrimaNota.Ru, забирай!