PrimaNota.ru - самый крупный в мире бесплатный архив песенных текстов, аккордов, табулатур и нот


Pinback - Blue Harvest - таба, бас-таба, видео

Регистрация Запомнить меня
Войти через:  Facebook Google Twitter Vk Yandex Mail.ru

Pinback - Blue Harvest - таба, бас-таба, видео

Печатать
Просмотров: 143
-------------------------------------------------------------------------------
                             Blue Harvest - Pinback
-------------------------------------------------------------------------------
Tabbed by: Justin R
E-mail: sdjsutinr@gmail.com

Tuning: Standard
 
Here is how I play Blue Harvest. Not tabbing any of the flourishes this time, just the main riff.
This plays the whole time. (periods below fret numbers mean palm mutes).

Listen to the song for the rhythm.
 
    
e|----------------------------------------------|
B|------2------3--------------------------------|
G|-------------------------4-------1------------|
D|----4------4-----------2-----------2--4-------|
A|--2------5---------------------2--------------|
E|-------------------5---------0----------------|
    . .    . .       .   .     . .   .      

e|----------------------------------------------|
B|------2------5--------------------------------|
G|-------------------------4-------1------------|
D|----4------4-----------2-----------2--4-------|
A|--2------5---------------------2--------------|
E|-------------------5---------0----------------|
    . .    . .       .   .     . .   .



************************************

| /   slide up
| \   slide down
| h   hammer-on
| p   pull-off
| ~   vibrato
| +   harmonic
| x   Mute note
| b   Bend
| pb  Pre-bend
| br  Bend release
| pbr Pre-bend release
| brb Bend release bend

************************************
Добавлено: 05.08.2015
Другие материалы по этой песне:
  • Аккорды и текст

Страница создана 22.05.2012
http://primanota.ru/pinback/blue-harvest-chords.htm
Привет, Гость.
Предлагаем пройти революционный курс по гитаре.
Подарок от PrimaNota.Ru, забирай!