PrimaNota.ru - самый крупный в мире бесплатный архив песенных текстов, аккордов, табулатур и нот


Pinback - Bb Tone - текст песни, таба, видео

Регистрация Запомнить меня
Войти через:  Facebook Google Twitter Vk Yandex Mail.ru

Pinback - Bb Tone - текст песни, таба, видео

Печатать
Просмотров: 139
Уроки эстрадного вокала в Санкт-Петербурге
-------------------------------------------------------------------------------
        BBtone - Pinback on www..net
-------------------------------------------------------------------------------
Pinback - BBtone
Album - Blue Screen Life (Track 4)
Tabbed by: Daniel Waldman
Email: daniel@utensilproductions.com
 
Have fun with this...I'm submitting a new Pinback tab every week so check
back often!
(This is one of my favorite Pinback songs)
 
Tuning: EADGBE
 
Intro (Bass Transcribed for Guitar)
e|---------------------------------------------------------------------------|
B|---------------------------------------------------------------------------|
G|---------------------------------------------------------------------------|
D|---------------------------------------------------------------------------|
A|-3---3---3---3---3---3---3---3----2---2---2---2---2---2---2---2------------|
E|---x---x---x---x---x---x---x---x----0---0---0---0---0---0---0---0----------|
 
Riff A "Coming from Behind the Wall"
e|---------------------------------------------------------------------------|
B|---------------------------------------------------------------------------|
G|---------------------------------------------------------------------------|
D|-7h9p7-5-7/9------9p7-5-2-0------------------------------------------------|
A|---------------------------------------------------------------------------|
E|---------------------------------------------------------------------------|
 
Chorus Riff 1
 Gadd9           A5            Em
e|---------------------------------------------------------------------------|
B|---------------------------------------------------------------------------|
G|---------------------------------------------------------------------------|
D|-7-7--7-7-7-7--7-7--7-7-7-7--2-2--2-2-2-2----------------------------------|
A|-5-5--5-5-5-5--7-7--7-7-7-7--2-2--2-2-2-2----------------------------------|
E|-3-3--3-3-3-3--5-5--5-5-5-5--0-0--0-0-0-0----------------------------------|
 
Chorus Riff 2
e|---------------------------------------------------------------------------|
B|---------------------------------------------------------------------------|
G|-7\4-2-4-2:--2-2/4-4--7\4-2-4-2-2-2-2--------------------------------------|
D|--------------------------------------2------------------------------------|
A|---------------------------------------------------------------------------|
E|---------------------------------------------------------------------------|
 
Outro/Solo
e|---------------------------------------------------------------------------|
B|-------------------------------------------------3-----5-------------------|
G|-4---2h4--0--2-2-2/4p0--------2/4/7\4---2-4-2-----4--4---4------------------|
D|------------------------4/5------------------------------------------------|
A|---------------------------------------------------------------------------|
E|---------------------------------------------------------------------------|
 
Guide to Tablature Symbols
 
| /  slide up
| \  slide down
| h  hammer-on
| p  pull-off
| ~  vibrato
| +  harmonic
| x  Mute note
===============================================================================

     
Добавлено: 19.07.2013
Другие материалы по этой песне:
  • Аккорды и текст

Страница создана 14.06.2012
http://primanota.ru/pinback/bb-tone-chords.htm
Привет, Гость.
Предлагаем пройти революционный курс по гитаре.
Подарок от PrimaNota.Ru, забирай!