PrimaNota.ru - самый крупный в мире бесплатный архив песенных текстов, аккордов, табулатур и нот


Pimps Of Joytime - Dance Cardia - бас-таба, видео

Регистрация Запомнить меня
Войти через:  Facebook Google Twitter Vk Yandex Mail.ru

Pimps Of Joytime - Dance Cardia - бас-таба, видео

Печатать
Просмотров: 67
Уроки эстрадного вокала в Санкт-Петербурге
-------------------------------------------------------------------------------
                DANCE CARDIA (FEAT. RUBBLEBUCKET) - PIMPS OF JOYTIME
-------------------------------------------------------------------------------


Tuning:EADG


Intro:
G|-----------------------------------------------------------------------------------|
D|-----------------------7\-----------5-------------7-----7h9--5-------5-------------|
A|--------3--2-----5h7-----------5h7-----5--5h7--------7----------5h7----------------|
E|--5--0--------3------5-----5-------------------5------------------------5----5\----|

Verse:
G|---------------------------------------|
D|------------9----------5--9--7---------|
A|--------7-----------3------------------|
E|--5--8---------5-5---------------------|

Chorus:
G|----------------------------------------------------------------------------------------------------|
D|-----------------------7\-----------5-------------7-----7h9--5-------5-----7-----7h9-------5--------|
A|--------3--2-----5h7-----------5h7-----5--5h7--------7----------5h7-----------7-------5h7-----------|
E|--5--0--------3------5-----5-------------------5------------------------5--~------------------5-----|


Bridge:
2:44
G|---------------|
D|--10\----------|
A|---------------|
E|---------------|

2:52
G|---------------------------------------|
D|------------9----------5--9--7---------|
A|--------7-----------3------------------| x2
E|--5--8---------5-5---------------------|

3:14
G|------------------------------------------------------------------------|
D|--2---------------------------55555555--22222222------------------------|
A|----3--2--00000000--22222222--------------------------------------------|
E|------------------------------------------------------------------------|




| /  slide up
| \  slide down
| h  hammer-on
| p  pull-off
| ~  vibrato
| +  harmonic
| x  Mute note
===============================================================================
Добавлено: 31.12.2015
Другие материалы по этой песне:
  • Аккорды и текст

Страница создана 31.12.2015
http://primanota.ru/pimps-of-joytime/dance-cardia-chords.htm
Привет, Гость.
Предлагаем пройти революционный курс по гитаре.
Подарок от PrimaNota.Ru, забирай!