PrimaNota.ru - самый крупный в мире бесплатный архив песенных текстов, аккордов, табулатур и нот


Pillows - Sunday - таба, видео

Регистрация Запомнить меня
Войти через:  Facebook Google Twitter Vk Yandex Mail.ru

Pillows - Sunday - таба, видео

Печатать
Просмотров: 85
Уроки эстрадного вокала в Санкт-Петербурге
Intro

E   ------------4---4---7--9--9--7--5-----4--5--7--9--|
B   --7-5-7-5-7---5-------------------7-5-------------|
G   ---6----------------------------------------------|
D   --------------------------------------------------|
A   --------------------------------------------------|
E   --------------------------------------------------|

E   ----------------------------------------|
B   ----------------------------------------|
G   ---7/6----------------------------------|
D   -------9-7--6-7---6-7-7-----------------|
A   ----------------7-----------------------|
E   ----------------------------------------|


Chords

A, Bm, Cm#, D - x4

E, D - x2

A, Bm, Cm#, D - x2

First Solo

E  --------------------------------------------------------------------------------------|
B  --2/5--5--5--5--5--5--5--3--2--2--2--3/5--5--5--5--5/3--3/2---------------------------|
G  -------------------------------------------------------------2--2--2--4-2-------------|
D  --------------------------------------------------------------------------------------|
A  --------------------------------------------------------------------------------------|
E  --------------------------------------------------------------------------------------|

E   ----------------------------------------------------------------------------|
B   -2/5--5--5--5--5--5--5-3--2--2--2--3/5--5--5/9--9--9/10---------------------|
G   ----------------------------------------------------------------------------|
D   ----------------------------------------------------------------------------|
A   ----------------------------------------------------------------------------|
E   ----------------------------------------------------------------------------|


E   ----------------------------------------|
B   ----------------------------------------|
G   ---7/6----------------------------------|
D   -------9-7--6-7---6-7-7-----------------|
A   ----------------7-----------------------|
E   ----------------------------------------|



A, Bm, Cm#, D - x4

E, D - x2

A, Bm, Cm#, D - x2


Second Solo


E   ---12/17--17--16--12--10-9-10/12--12--12--10--9----------9----------|
B   -------------------------------------------------11--12-----10------|
G   --------------------------------------------------------------------|
D   --------------------------------------------------------------------|
A   --------------------------------------------------------------------|
E   --------------------------------------------------------------------|

E  -----------------------9--10--12------------------------------------------|
B  -10-----9---10---12-------------------999--10--10/12---10---9---10/12--10-|
G  ----9-9---9----9----9-----------------------------------------------------|
D  --------------------------------------------------------------------------|
A  --------------------------------------------------------------------------|
E  --------------------------------------------------------------------------|

E   ---12----10----9-----9/10--10--10/12--12--------------------------------------------|
B   ---14----12---10----10/12--12--12/14--14--------------------------------------------|
G   ------------------------------------------------------------------------------------|
D   ------------------------------------------------------------------------------------|
A   ------------------------------------------------------------------------------------|
E   ------------------------------------------------------------------------------------|

E   -------------------------------------------------------------------------------|
B   --------------------------------9--10--12---10--12-----------------------------|
G   -------------------------9--10-------------------------------------------------|
D   --------------9----9-10--------------------------------------------------------|
A   --11-11-11-12---12-------------------------------------------------------------|
E   -------------------------------------------------------------------------------|

E   ---12----10----9-----9/10--10--10/12--12---------------------------|
B   ---14----12---10----10/12--12--12/14--14---------------------------|
G   -------------------------------------------------------------------|
D   -------------------------------------------------------------------|
A   -------------------------------------------------------------------|
E   -------------------------------------------------------------------|

E   -------------------------------------------------|
B   --10-10--9-9--7--5-------------------------------|
G   ----9-----9--------------------------------------|
D   -------------------------------------------------|
A   -------------------------------------------------|
E   -------------------------------------------------|


E, D - x2

A, Bm, Cm#, D - x4
Добавлено: 04.07.2013
Другие материалы по этой песне:
  • Аккорды и текст

Страница создана 04.07.2013
http://primanota.ru/pillows/sunday-chords.htm
Привет, Гость.
Предлагаем пройти революционный курс по гитаре.
Подарок от PrimaNota.Ru, забирай!