PrimaNota.ru - самый крупный в мире бесплатный архив песенных текстов, аккордов, табулатур и нот


Pillows - Subhuman - аккорды и текст, таба, видео

Регистрация Запомнить меня
Войти через:  Facebook Google Twitter Vk Yandex Mail.ru

Pillows - Subhuman - аккорды и текст, таба, видео

Печатать
Просмотров: 152
Subhuman
Pillows
"Subhuman" - The Pillows
from Another Morning, Another Pillows
(2002)

Intro:
    G                C               D             G     B
e|-------------------------------------------------------2~-----|
B|--3~-------------------1-1--1-1-0-----0----0-----------3~-----|
G|------0--2-4-2-0---0~--------------2-----2---2---0~----3~-----|
D|--0~---------------2~--------------0~------------0~----3~-----|
A|-------------------3~----------------------------2~----2~-----|
E|--3~---------------------------------------------3~----2~-----|

Em         F       G 
Goodbye, I must be leaving now
              A                 Eb  D   G
Because maybe I'm full of likes and dis-likes
    Em           F           G
The noise on the street is unbearable
          A            Eb    D  G
But maybe I have got nowhere to go

                 Bm
So, I wanna be a bat
      Em      Bm        Em
And I want to touch the sun
Bm           Em     Bm      G       B
Yeah, I will try to force a smile,  Ooh 

  Em     F          G
I cannot stand this heat
           A               Eb D     G
Oh, please tell me where I am right now

Solo:
    Em       F     G                 A            Eb D        G
e|--------------------------------------------------------------|
B|--------------------------------------------------------------|
G|--------------------------------------------------------------|
D|--------------------------------------------------------------|
A|--/7~--2h5/7b~------------------------------------------------|
E|---------------5h7~p5-3-3b~--3-5-3-5/7--5\3~p0--6--5-5--3h5p3-|

  Em         F         G
I woke up at midnight again
         A              Eb      D  G
Oh baby, I did not know what to do next
  Em               F         G
I can't see, but I can feel, all the time
         A            Eb    D  G
Oh baby, I have got nothing to lose

                  Bm
Just, I wanna be a bat
      Em       Bm      Em
And I want the shining star
Bm           Em     Bm      G     B
Yeah, I will try to force a cry,  Ooh

  Em     F          G
I cannot stand this heat
       A                Eb D     G
Please tell me, where I am right now

Em  F  G   A   Eb D  G (x2)

Outro (same as intro):
G  C  D  G  (repeat until fade)

Notes:
- I usually play the (D# D) part with power chords, I think it sounds nicer.
- A B7 also works well in the place of B in this song.
Добавлено: 03.07.2012
Другие материалы по этой песне:
  • Аккорды и текст

Страница создана 03.07.2012
http://primanota.ru/pillows/subhuman-chords.htm
Привет, Гость.
Предлагаем пройти революционный курс по гитаре.
Подарок от PrimaNota.Ru, забирай!