PrimaNota.ru - самый крупный в мире бесплатный архив песенных текстов, аккордов, табулатур и нот


Pillows - Funny Bunny - аккорды и текст, таба, бас-таба, драм-таба, видео

Регистрация Запомнить меня
Войти через:  Facebook Google Twitter Vk Yandex Mail.ru

Pillows - Funny Bunny - аккорды и текст, таба, бас-таба, драм-таба, видео

Печатать
Просмотров: 442
Авторы музыки: 山中さわお
Авторы текста: 山中さわお
Funny Bunny
Pillows
Funny Bunny
By The Pillows

Here's my take on the chords. Enjoy you weebos.

Note: You can alternate between Em and Em7 when playing the second and fourth Em of the 
Intro, Verse, and Outro. Like so:

   D  Em D  Em\Em7
e|-2--0--2--0-0-0-0-0-0-|
B|-3--0--3--0-0-0-0-0-0-|
G|-2--0--2--0-0-0-0-0-0-|
D|-0--2--0--2-0-2-0-2-0-|
A|----2-----2-2-2-2-2-2-|
E|----0-----0-0-0-0-0-0-|


Fill at the end of Pre-chorus 1&2

e|----------------------------|
B|---2----2----2----2---------|
G|-----2----2----2----2-------|
D|----------------------------|
A|-0--------------------------|
E|-------3----2----0----------|

Fill at the end of Verse 3:

e|-----------------------|------------------------|
B|---2----2----2----2----|---2----2----2----2-----|
G|-----2----2----2----2--|-----2----2----2----2---|
D|-----------------------|-----------------2------|
A|-0---------------------|-0-----2----4-----------|
E|-------3----2----0-----|------------------------|


Into:
D Em D Em
D Em D Em


Verse:

  D        Em           D       Em
ousama no koe ni sakaratte
D           Em              D     Em
barechatta yoru kimi wa waratte ita

  D    Em       D          Em
oorora ni sawareru hoka no ue
  D       Em                D         Em
ryoute wo nobashite boku wo sasotte ita


Pre-chorus:

G       F#m      Bm           G
hodokete barabara ni natta biizu
F#m          G                   A
kirei da ne tte yozora ni purezento


Verse 2:

D         Em      D         Em
doukashi wa sugao wo misenaide
D           Em             D      Em
joudan mitai ni aru hi inaku natta


Pre-chorus 2:

G        F#m        Bm            G
sekai wa kyou mo kantansou ni mawaru
F#m               G                  A
sono supiido de namida mo kawaku kedo


Chorus:

             G  A         D
kimi no yume ga kanau no wa
       G  F#m           Bm
dareka no okage ja nai ze
     G  A         D  A   G     A   
    D
kaze no tsuyoi hi wo erande hashitte kita


Solo:

D Em D Em

D Em D Em


Pre-Chorus 3:

G       F#m       Bm       G
imagoro doko de doushite iru
    F#m      G            A
me ni ukabu tereta ushiro sugata ni
A
aitai na


Chorus 2:

             G  A         D
kimi no yume ga kanau no wa
       G  F#m           Bm
dareka no okage ja nai ze
     G  A         D  A   G     A   
    D
kaze no tsuyoi hi wo erande hashitte kita

           G  A         D
tobenakute mo fuan ja nai
     G   F#m          Bm
jimen wa tsuzuite iru n da

    G  A           D
sukina basho e yukou
   A   G    A          D
kimi nara sore ga dekiru


Outro:

D Em D Em
D Em D Em
D
Добавлено: 11.06.2013
Другие материалы по этой песне:

Страница создана 04.03.2012
http://primanota.ru/pillows/funny-bunny-chords.htm
Привет, Гость.
Предлагаем пройти революционный курс по гитаре.
Подарок от PrimaNota.Ru, забирай!