PrimaNota.ru - самый крупный в мире бесплатный архив песенных текстов, аккордов, табулатур и нот


Pillows - Degeneration - таба, видео

Регистрация Запомнить меня
Войти через:  Facebook Google Twitter Vk Yandex Mail.ru

Pillows - Degeneration - таба, видео

Печатать
Просмотров: 124
Авторы музыки: 山中さわお
Авторы текста: 山中さわお
The Pillows – Degeneration
Album: My Foot
Standard Tuning
Tabbed by K-Dog

Really simple but nice song. Listen to the track if you need help, but if you have lots 
trouble playing this you're probably retarded.

Intro
e-----------------------------------------|
B-----------------------------------------|
G-----------------------------------------|
D-77777-77777-----------------------------|
A-77777-77777-----------------------------|
E-55555-55555-----------------------------|

e-----------------------------------------|
B-----------------------------------------|
G------555-5/7-7--------------------------|
D-77-x-555-5/7-7-55-4-5-------------------|
A-77-x-333-3/5-5-55-4-5-------------------|
E-55-x-333-3/5-5-33-2-3-------------------| X3

e-----------------------------------------|
B-----------------------------------------|
G--6666--6666-----------------------------|
D-77777-77777-----------------------------|
A-77777-77777-----------------------------|
E-55555-55555-----------------------------|

Verse 1
e-----------------------------------------|
B-----------------------------------------|
G------555-5/7-7--------------------------|
D-77-x-555-5/7-7-55-4-5-------------------|
A-77-x-333-3/5-5-55-4-5-------------------|
E-55-x-333-3/5-5-33-2-3-------------------| X3

e-----------------------------------------|
B-----------------------------------------|
G--6666--6666-----------------------------|
D-77777-77777-----------------------------|
A-77777-77777-----------------------------|
E-55555-55555-----------------------------|

Verse 2
e-----------------------------------------|
B-----------------------------------------|
G-----------------------------------------|
D-777-666-555-444-333-222-7777777---------|
A-777-777-555-555-333-222-7777777---------|
E(555-555-333-333-111-000-5555555)--------| X2


Chorus
e-----------------------------------------|
B-----------------------------------------|
G------555-5/7-7--------------------------|
D-77-x-555-5/7-7-55-4-5-------------------|
A-77-x-333-3/5-5-55-4-5-------------------|
E-55-x-333-3/5-5-33-2-3-------------------| X3

e-----------------------------------------|
B-----------------------------------------|
G--6666--6666-----------------------------|
D-77777-77777-----------------------------|
A-77777-77777-----------------------------|
E-55555-55555-----------------------------|

-Verse 1

-Verse 2

-Chorus

Solo (kinda)
e-----------------------------------------|
B-----------------------------------------|
G--------------------7-5---5--------------|
D--7---------0-5-0-7-----7---7------------|
A----0-5-0-7------------------------------|
E-----------------------------------------| X3

e------------/10\9------------------------|
B-----------------10-10-------------------|
G-----5---7-------------------------------|
D-5/7---7---------------------------------|
A-----------------------------------------|
E-----------------------------------------|

-Verse 2

-Chorus

Final
e-----------------------------------------|
B-----------------------------------------|
G------555-5/7-7--------------------------|
D-77-x-555-5/7-7-55-4-5-------------------|
A-77-x-333-3/5-5-55-4-5-------------------|
E-55-x-333-3/5-5-33-2-3-------------------| X3

e-----------------------------------------|
B-----------------------------------------|
G-----------6-----------------------------|
D-77777/11\-7-----------------------------|
A-77777/11\-7-----------------------------|
E-55555/9-\-5-----------------------------|
Добавлено: 25.04.2012
Другие материалы по этой песне:
  • Аккорды и текст

Страница создана 25.04.2012
http://primanota.ru/pillows/degeneration-chords.htm
Привет, Гость.
Предлагаем пройти революционный курс по гитаре.
Подарок от PrimaNota.Ru, забирай!