PrimaNota.ru - самый крупный в мире бесплатный архив песенных текстов, аккордов, табулатур и нот


Pilli Bebek - Eylül Akşamı - аккорды и текст, видео

Регистрация Запомнить меня
Войти через:  Facebook Google Twitter Vk Yandex Mail.ru

Pilli Bebek - Eylül Akşamı - аккорды и текст, видео

Печатать
Просмотров: 130
Eylül Akşamı
Pilli Bebek
E||-------------------8-10-12-10-8-7-8-10-8-7-5-7-8-7-5-3---5-7---|
B||--8-7-5-7-8-5--------------------------------------------------|
G||---------------------------------------------------------------|
D||---------------------------------------------------------------|
A||---------------------------------------------------------------|
E||---------------------------------------------------------------|

E||-------------------8-10-12-10-8-7-8-10-8-7-5-7-8-7-5-3-2-0----|
B||--8-7-5-7-8-5-------------------------------------------------|
G||--------------------------------------------------------------|
D||--------------------------------------------------------------|
A||--------------------------------------------------------------|
E||--------------------------------------------------------------|


Em           B7        Am      B7
Gözlerin umutlardan bir haber veriyor
Em           B7        Am      B7
Gözlerin umutlardan bir haber veriyor


Am                     Em
Aşık olacak gibisin, gözlerinde atıyor kalbin
        B7                                   Em
Ve bir eylül akşamında yaprak çıtırtılarıyla yürüyorsun
Am                    Em
Aşık olacak gibisin, gözlerinde atıyor kalbin
        B7                                      Em
Ve bir eylül akşamında yaprak çıtırtılarıyla yürüyorsun
    B7           Em
Yürüyorsun, yürüyorsun


Em               B7       Am        B7
Yorgunsun akan sudan daha çok yorgunsun
Em                   B7        Am      B7
Yalnızsın bir damla kadar göl içinde yalnızsın


Am                      Em
Aşka dönecek gibisin, gözlerinde atıyor kalbin
        B7                                   Em
Ve bir eylül akşamında yaprak çıtırtılarıyla yürüyorsun
Am                      Em
Aşık olacak gibisin, gözlerinde atıyor kalbin
        B7                                     Em
Ve bir eylül akşamında yaprak çıtırtılarıyla yürüyorsun
B7           Em
Yürüyorsun, yürüyorsun
Добавлено: 24.07.2015
Другие материалы по этой песне:
  • Аккорды и текст

Страница создана 24.07.2015
http://primanota.ru/pilli-bebek/eylul-aksam-chords.htm
Привет, Гость.
Предлагаем пройти революционный курс по гитаре.
Подарок от PrimaNota.Ru, забирай!