PrimaNota.ru - самый крупный в мире бесплатный архив песенных текстов, аккордов, табулатур и нот


Pile - Prom Song - таба, видео

Регистрация Запомнить меня
Войти через:  Facebook Google Twitter Vk Yandex Mail.ru

Pile - Prom Song - таба, видео

Печатать
Просмотров: 34
-------------------------------------------------------------------------------
                             Prom Song - Pile
-------------------------------------------------------------------------------

Tuning: Standard

Intro:

Guitar 1:

e|---------------------------------------------------------------------------|
B|---------------------------------------------------------------------------|
G|--6br---------6br-------6br-----------------------6br-----------6br--------|
D|------9-6-6-9-------6-9-----9-6-6-9---4-2-------2-----9-6-6-9---------6-9--|
A|------------------7-----------------4-----2/4-4---------------------7------|
E|---------------------------------------------------------------------------|

e|---------------------------------------------------------------------------|
B|---------------------------------------------------------------------------|
G|--6br----------------------------------------------------------------------|
D|------9-6-6-9---4-2--------------------------------------------------------|
A|--------------4-----2/4-4--------------------------------------------------|
E|---------------------------------------------------------------------------|

Guitar 2:

I did my best to space it out properly, but definitely listen for it

e|-------------------------------------------------------------------------------|
B|--------------------------------------------------------------------------7p5--|
G|-------------6-------4----------------------------6br-----------6-----4h6------|
D|-------------------------------------------------------------------------------|
A|-----------------------------------4---2---------------------------------------|
E|-------------------------------------------------------------------------------|

e|---------------------------------------------------------------------------|
B|---------------------------------------------------------------------------|
G|---------------------------------------------------------------------------|
D|---------------------------------------------------------------------------|
A|-----------4-----2---------------------------------------------------------|
E|---------------------------------------------------------------------------|

Verse:

Guitar 1:

Start after guitar two goes through 3x

e|----------------------5----------------------------------------------------|
B|--7-5-----5---7-5-------7-10-9------9-10-9------9--------------------------|
G|------4h6---6-----4h6----------9h10--------9h10---9------------------------|  3x
D|---------------------------------------------------------------------------|
A|---------------------------------------------------------------------------|
E|---------------------------------------------------------------------------|

Guitar 2:

e|--6-5---5-4--8--7----------------------------------------------------------|
B|--6-5---7-6--10-9----------------------------------------------------------|
G|--7-6---7-6--10-9----------------------------------------------------------| 6x
D|--8-7---7-6--10-9----------------------------------------------------------|
A|--8-7---5-4--8--7----------------------------------------------------------|
E|--6-5---5-4--8--7----------------------------------------------------------|

whispered at your mum
she wondered why you came
fold it up a couple times
and then use it for shade
never asked to go and see through each day

Chorus:

Guitar 1:

e|---------------------------------------------------------------------------|
B|--6-5-----5---6p5-8-9------------------------------------------------------|
G|------5h6---6---------4-2-----2---4-6-2------------------------------------|
D|--------------------------2h4---4------------------------------------------| 2x
A|---------------------------------------------------------------------------|
E|---------------------------------------------------------------------------|

Guitar 2:

e|--5-5-5-5--2-2-2-2---------------------------------------------------------|
B|--5-5-5-5--2-2-2-2---------------------------------------------------------|
G|--6-6-6-6--2-2-2-2--------1------------------------------------------------|
D|--7-7-7-7--4-4-4-4---2x---2------------------------------------------------|
A|--7-7-7-7--4-4-4-4--------2------------------------------------------------|
E|--5-5-5-5--2-2-2-2---------------------------------------------------------|

oooh dad
why do i have to stay?

(1:35 - 1:44)

Both guitars

e|--6-6-6-6-6-6-6------------------------------------------------------------|
B|--8-8-8-8-8-8-8------------------------------------------------------------|
G|--8-8-8-8-8-8-8------------------------------------------------------------|
D|--8-8-8-8-8-8-8------------------------------------------------------------|
A|--6-6-6-6-6-6-6------------------------------------------------------------|
E|--6-6-6-6-6-6-6------------------------------------------------------------|

Bridge:

Guitar 1:

e|--6-6-6-6-6-6-6------------------------------------------------------------|
B|--8-8-8-8-8-8-8------------------------------------------------------------|
G|--8-8-8-8-8-8-8------------------------------------------------------------|
D|--8-8-8-8-8-8-8------------------------------------------------------------|
A|--6-6-6-6-6-6-6------------------------------------------------------------|
E|--6-6-6-6-6-6-6------------------------------------------------------------|

Guitar 2:

e|--5---4---6---7---4-4-4-4--------------------------------------------------|
B|--5---4---7---9---6-6-6-6--------------------------------------------------|
G|--6---5---8---9---6-6-6-6--------------------------------------------------|
D|--7---6---8---9---6-6-6-6--------------------------------------------------|
A|--7---6---6---7---4-4-4-4--------------------------------------------------|
E|--5---4---6---7---4-4-4-4--------------------------------------------------|

e|--5-5-5-5-4-4-4-4-7-7-7-7-7-7-7-7------------------------------------------|
B|--5-5-5-5-4-4-4-4-9-9-9-9-9-9-9-9------------------------------------------|
G|--6-6-6-6-5-5-5-5-9-9-9-9-9-9-9-9------------------------------------------|
D|--7-7-7-7-6-6-6-6-9-9-9-9-9-9-9-9------------------------------------------|
A|--7-7-7-7-6-6-6-6-7-7-7-7-7-7-7-7------------------------------------------|
E|--5-5-5-5-4-4-4-4-7-7-7-7-7-7-7-7------------------------------------------|

you're an upstanding man
and i'm just a fish
i wanna go swimming
and it's making me itch

Verse 2:

Both guitars

e|--5-5-5-5-4-4-4-4-5-5-5-5-5-5-5-5-4-4-4-4-7-7-7-7--------------------------|
B|--5-5-5-5-5-5-5-5-7-7-7-7-5-5-5-5-5-5-5-5-9-9-9-9--------------------------|
G|--6-6-6-6-6-6-6-6-7-7-7-7-6-6-6-6-6-6-6-6-9-9-9-9--------------------------|
D|--7-7-7-7-6-6-6-6-7-7-7-7-7-7-7-7-6-6-6-6-9-9-9-9--------------------------|
A|--7-7-7-7-4-4-4-4-5-5-5-5-7-7-7-7-4-4-4-4-7-7-7-7--------------------------|
E|--5-5-5-5-4-4-4-4-5-5-5-5-5-5-5-5-4-4-4-4-7-7-7-7--------------------------|

e|--5-5-5-5-4-4-4-4-1-1-1-1-5-5-5-5-4-4-4-4-7-7-7-7--------------------------|
B|--5-5-5-5-5-5-5-5-1-1-1-1-5-5-5-5-4-4-4-4-9-9-9-9--------------------------|
G|--6-6-6-6-6-6-6-6-2-2-2-2-6-6-6-6-5-5-5-5-9-9-9-9--------------------------|
D|--7-7-7-7-6-6-6-6-3-3-3-3-7-7-7-7-6-6-6-6-9-9-9-9--------------------------|
A|--7-7-7-7-4-4-4-4-3-3-3-3-7-7-7-7-6-6-6-6-7-7-7-7--------------------------|
E|--5-5-5-5-4-4-4-4-1-1-1-1-5-5-5-5-4-4-4-4-7-7-7-7--------------------------|

now that everyone's gone
i locked em out of my home
and they're making friends outside
and i'm finally alone

Bridge:

Guitar 1:

e|---------------------------------------------------------------------------|
B|---------------------------------------------------------------------------|
G|--6br---------6br-------6br-----------------------6br-----------6br--------|
D|------9-6-6-9-------6-9-----9-6-6-9---4-2-------2-----9-6-6-9---------6-9--|
A|------------------7-----------------4-----2/4-4---------------------7------|
E|---------------------------------------------------------------------------|

e|---------------------------------------------------------------------------|
B|---------------------------------------------------------------------------|
G|--6br----------------------------------------------------------------------|
D|------9-6-6-9---4-2--------------------------------------------------------|
A|--------------4-----2/4-4--------------------------------------------------|
E|---------------------------------------------------------------------------|

Guitar 2:

listen for spacing

e|---------------------------------------------------------------------------|
B|---------------------------7p5---------------------------------------------|
G|---------------6-------4h6-------------------------------------------------|
D|-------------------------------------------------2-------------------------|
A|----------------------------------4----2-----------------------------------|
E|---------------------------------------------------------------------------|

e|---------------------------------------------------------------------------|
B|---------------------------------------------------------------------------|
G|------------4--------------------------------------------------------------|
D|-----6--2------6-----------------------------------------------------------|
A|---------------------------------------------------------------------------|
E|---------------------------------------------------------------------------|

Verse 3:

Guitar 1:

e|---------------------------------------------------------------------------|
B|---------------------------------------------------------------------------|
G|-------6-----6-----9-----9-------------------------------------------------|
D|-----2-----2-----6-----6---------------------------------------------------| 3x
A|---4-----4-----7-----7-----------------------------------------------------|
E|---------------------------------------------------------------------------|

e|--7--4---------7-7-7-7-7-7-7-7---------------------------------------------|
B|-------5-7-5---9-9-9-9-9-9-9-9---------------------------------------------|
G|-------------6-9-9-9-9-9-9-9-9---------------------------------------------|
D|---------------9-9-9-9-9-9-9-9---------------------------------------------|
A|---------------7-7-7-7-7-7-7-7---------------------------------------------|
E|---------------7-7-7-7-7-7-7-7---------------------------------------------|

Guitar 2:

e|--5-5-5-5-4-4-4-4-7-7-7-7-5-5-5-5-4-4-4-4-1-1-1-1--------------------------|
B|--5-5-5-5-5-5-5-5-9-9-9-9-5-5-5-5-5-5-5-5-1-1-1-1--------------------------|
G|--6-6-6-6-6-6-6-6-9-9-9-9-6-6-6-6-6-6-6-6-2-2-2-2--------------------------|
D|--7-7-7-7-6-6-6-6-9-9-9-9-7-7-7-7-6-6-6-6-3-3-3-3--------------------------|
A|--7-7-7-7-4-4-4-4-7-7-7-7-7-7-7-7-4-4-4-4-3-3-3-3--------------------------|
E|--5-5-5-5-4-4-4-4-7-7-7-7-5-5-5-5-4-4-4-4-1-1-1-1--------------------------|

e|--5-5-5-5-4-4-4-4-7-7-7-7-7-7-7-7------------------------------------------|
B|--5-5-5-5-4-4-4-4-9-9-9-9-9-9-9-9------------------------------------------|
G|--6-6-6-6-5-5-5-5-9-9-9-9-9-9-9-9------------------------------------------|
D|--7-7-7-7-6-6-6-6-9-9-9-9-9-9-9-9------------------------------------------|
A|--7-7-7-7-6-6-6-6-7-7-7-7-7-7-7-7------------------------------------------|
E|--5-5-5-5-4-4-4-4-7-7-7-7-7-7-7-7------------------------------------------|

now that everyone's gone
i locked em out of my home
i've been aching friends outside
and i'm finally alone

Solo:

Guitar 1:

Something like this

e|---------------------9-----------------------------------------------------|
B|--12----9----12----9---12--9--7--------------------------------------------|
G|--------------------------------6-9--6-9-6------------6----9br--11-9-------|  3x
D|-------------------------------------------9-6-9--6-9---9------------------|
A|---------------------------------------------------------------------------|
E|---------------------------------------------------------------------------|

not really sure what the second part of the solo is doing

Guitar 2:

A  Dbm  E

end with both guitars playing this

Ebm C Ebm C Ebm C

************************************

| /   slide up
| \   slide down
| h   hammer-on
| p   pull-off
| ~   vibrato
| +   harmonic
| x   Mute note
| b   Bend
| pb  Pre-bend
| br  Bend release
| pbr Pre-bend release
| brb Bend release bend

************************************
Добавлено: 13.07.2015
Вам также может быть интересно:
Другие материалы по этой песне:
  • Аккорды и текст

Страница создана 13.07.2015
http://primanota.ru/pile/prom-song-chords.htm
Привет, Гость.
Предлагаем пройти революционный курс по гитаре.
Подарок от PrimaNota.Ru, забирай!