PrimaNota.ru - самый крупный в мире бесплатный архив песенных текстов, аккордов, табулатур и нот


Пикник, Эдмунд Шклярский - Шарманка - аккорды и текст, видео

Регистрация Запомнить меня
Войти через:  Facebook Google Twitter Vk Yandex Mail.ru

Пикник, Эдмунд Шклярский - Шарманка - аккорды и текст, видео

Печатать
Просмотров: 936
Шарманка
Пикник, Эдмунд Шклярский
--------5-5-5---5---5---5-----4-4-4---4---4---4-----------
--------5-5-5---5---5---5-----5-5-5---5---5---5-----------
--------4-4-4---4---4---4-----4-4-4---4---4---4-----------
----------------------------------------------------------
----------------------------------------------------------
----------------------------------------------------------


----------------------------------------------------------
--7----5----4----4----------------------------------------
--7----5----4----2----------------------------------------
--5----3----2----2----------------------------------------
----------------------------------------------------------

 D(5)            C(3)                  H
----------------------------------------------------------
--7---------------5--------------------4------------------
--7---------------5--------------------4------------------
--5---------------3--------------------2------------------
----------------------------------------------------------
Захотели бы руки, перемелятса звуки в муку

Вступление: Em

Em
А по тебе, видно сразу, будет толк -
Em
Ты веселящего газа большой знаток.
Am                          C
А значит будет с кем вместе спуститься в рай.
H
Играй шарма-ма-ма, моя шарманка играй.

Em
Это да, каждый звук как плеть,
Em
А вам откуда знать, хочу ли я уцелеть?
Am                    C
Не для того пока душа несется в рай...
H
Играй шарма-ма-ма, моя шарманка играй.

D(5)              C(3)                H
Захотели бы руки, перемелятся звуки в муку...
Моя шарманка, но...

Em(7) Am(5) C(3) H(7)

Em

Моя шарманка, что мельница -
Мелет звуки не верится.
Жерновам ее все не беда...
Играй шарма-ма-ма, моя шарманка играй.
Ущипни мне руку, чудеса,
Все что может шевелится!
И душа несется в рай...
Играй шарма-ма-ма, моя шарманка и...

Ты пропустил через мысли электрический ток,
Ты веселящего газа большой знаток.
Теперь за воздух держись, теперь смотри не растай...
Играй шарма-ма-ма, моя шарманка играй.
Это счастье одному из ста
И я готов поклясться головой шута.
Теперь ты легче свинца - так лети улетай...
Играй шарма-ма-ма, моя шарманка играй.

Захотели бы руки, перемелятся звуки в муку...
Моя шарманка, но...
Добавлено: 30.06.2012
http://primanota.ru/piknik/sharmanka-chords.htm
Привет, Гость.
Предлагаем пройти революционный курс по гитаре.
Подарок от PrimaNota.Ru, забирай!