PrimaNota.ru - самый крупный в мире бесплатный архив песенных текстов, аккордов, табулатур и нот


Пикник, Эдмунд Шклярский - Азбука Морзе - аккорды и текст, видео

Регистрация Запомнить меня
Войти через:  Facebook Google Twitter Vk Yandex Mail.ru

Пикник, Эдмунд Шклярский - Азбука Морзе - аккорды и текст, видео

Печатать
Просмотров: 3359
Азбука Морзе
Пикник, Эдмунд Шклярский
Вступление: 
Am Asus2 Am Am Asus2 Am  Em Esus4 Em Em/f# Em
E-8----7-------5-----8------7-------5-----7-----5------------------------0--
H-------------------------------------------------------------8---7h8----------
G--------------------------------------------------------------------------------- - 2p.
D---------------------------------------------------------------------------------
A---------------------------------------------------------------------------------
E----------------------------------------------------------------------------------

           Am          Asus2       Am
Чтобы время не мчалось вперед,
          Am          Asus2       Am
Чтобы день не гонялся за днем,
        Em    Esus4           Em
Он часы ненавистные жжет
Em/f# Em Em
     Огнем
       Am          Asus2    Am
А потом размахнется и бьет,
       Am         Asus2     Am
Кулаками морщины разглаживая,
           Em     Esus4    Em
Скоро время назад пойдет -
           C                 E
Расскажите об этом каждому

C                                  C/h  
 А ты сиди и не ерзай м-м-г-у
Am                                           Em G Em G
   И Азбукой Морзе подмигивай мне
C                          C/h  
Мы сделаем вид, м-м-г-у
Am                                    Em G Em G
   Что мир нам открыт вполне...

Он взорвет лихорадочный день
И сиянием обескуражит.
Элвис новые песни споет -
А то как же...
К сердцу плачущих нищих прижмет,
На огонь, что не гаснет, укажет
Скоро время назад пойдет -
Расскажите об этом каждому

А ты сиди и не ерзай м-м-г-у
И Азбукой Морзе подмигивай мне
Мы сделаем вид, м-м-г-у
Am                                    Em G D E
   Что мир нам открыт вполне...

Проигрыш: 
Am Asus2 Am Am Asus2 Am  Em Esus4 Em Em/f# Em
E-8----7-------5-----8------7-------5-----7-----5------------------------0--
H-------------------------------------------------------------8---7h8----------
G--------------------------------------------------------------------------------- 
D---------------------------------------------------------------------------------
A---------------------------------------------------------------------------------
E---------------------------------------------------------------------------------
  Am Asus2 Am Am Asus2 Am  Em Esus4 Em      C         E
E-8----7-------5------8----7--------5------7-----5--------------------------------
H--------------------------------------------------------------8---7h8-8---8h9-9-
G-------------------------------------------------------------------------------------
D-------------------------------------------------------------------------------------
A-------------------------------------------------------------------------------------
E-------------------------------------------------------------------------------------

А ты сиди и не ерзай м-м-г-у
И Азбукой Морзе...
Мы сделаем вид, м-м-г-у
Что мир нам открыт...

           Am      Asus2    Am
Скоро время назад пойдет,
           Am      Asus2    Am
Скоро время назад пойдет,
          Em    Esus4      Em Em/f# Em
Элвис новые песни споет
           Am      Asus2    Am
Скоро время назад пойдет,
           Am      Asus2    Am
Скоро время назад пойдет,
          Em    Esus4      Em C E
Элвис новые песни споет

Проигрыш:
Am Asus2 Am Am Asus2 Am  Em Esus4 Em Em/f# Em
E-8----7-------5-----8------7-------5-----7-----5------------------------0--
H-------------------------------------------------------------8---7h8----------
G--------------------------------------------------------------------------------- 
D---------------------------------------------------------------------------------
A---------------------------------------------------------------------------------
E---------------------------------------------------------------------------------
  Am Asus2 Am Am Asus2 Am  Em Esus4 Em      C         E
E-8----7-------5------8----7--------5------7-----5--------------------------------
H--------------------------------------------------------------8---7h8-8---8h9-9-
G-------------------------------------------------------------------------------------
D-------------------------------------------------------------------------------------
A-------------------------------------------------------------------------------------
E-------------------------------------------------------------------------------------

Am Asus2 Am Am Asus2 Am  Em Esus4 Em Em/f# Em
E-8----7-------5-----8------7-------5-----7-----5------------------------0--
H-------------------------------------------------------------8---7h8----------
G--------------------------------------------------------------------------------- 
D---------------------------------------------------------------------------------
A---------------------------------------------------------------------------------
E---------------------------------------------------------------------------------                          
                  Подмигивай мне!..        Подмигивай мне!..
  Am Asus2 Am Am Asus2 Am  Em Esus4 Em      C         E
E-8----7-------5------8----7--------5------7-----5--------------------------------
H--------------------------------------------------------------8---7h8-8---8h9-9-
G-------------------------------------------------------------------------------------
D-------------------------------------------------------------------------------------
A-------------------------------------------------------------------------------------
E-------------------------------------------------------------------------------------
                 Подмигивай мне!..        Подмигивай мне!..

Заключение:
  Am Asus2 Am Am Asus2 Am  Em Esus4 Em Em/F# Em
E-8----7-------5----8----7-------5----7-----5---------------------0--
H------------------------------------------------------8---7h8----------
G------------------------------------------------------------------------- 
D-------------------------------------------------------------------------
A-------------------------------------------------------------------------
E-------------------------------------------------------------------------                               
  Am Asus2 Am Am Asus2 Am  Em Esus4 Em      C         E
E-8----7-------5------8----7--------5------7-----5--------------------------------
H--------------------------------------------------------------8---7h8-8---8h9-9-
G------------------------------------------------------------------------------------- Am
D-------------------------------------------------------------------------------------
A-------------------------------------------------------------------------------------
E-------------------------------------------------------------------------------------

Am [x02210]
Asus2 [x02200]
Em [022000]
Esus4 [022200]
Em/f# [xx4000]
C [x32010]
E [022100]
C/h [x22010]
G [320003]
D [xx0232]
Добавлено: 11.01.2014
http://primanota.ru/piknik/azbuka-morze-chords.htm
Привет, Гость.
Предлагаем пройти революционный курс по гитаре.
Подарок от PrimaNota.Ru, забирай!