PrimaNota.ru - самый крупный в мире бесплатный архив песенных текстов, аккордов, табулатур и нот


Pignoise - Voy - таба, видео

Регистрация Запомнить меня
Войти через:  Facebook Google Twitter Vk Yandex Mail.ru

Pignoise - Voy - таба, видео

Печатать
Просмотров: 73
AFINACIÓN: 1/2 tono menos. Eb, Ab, Db, Gb, Bb, Eb.

h: Hammer On
D5: RE5
G#5: SOL#5
F'5: FA5 (agudo)
G5: SOL5


Eb|--X--X--X--X--X--X--X--X--X--X--X--X--|
Bb|--X--X--X--X--X--X--X--X--X--X--X--X--|
Gb|--X--X--X--X--X--X--X--X--X--X--X--X--|
Db|--X--X--X--X--X--X--X--X--X--X--X--X--|
Ab|--X--X--X--X--X--X--X--X--X--X--X--X--|
Eb|--X--X--X--X--X--X--X--X--X--X--X--X--|


Eb|-------------------------------------------------------------------------|
Bb|-------------------------------------------------------------------------|
Gb|-------------------------------------------------------------------------|
Db|-------------------------------------------------------------------------| X2
Ab|------------------8-------------------3--------------------3-4-5---------|
Eb|--10---10-10-8-10---10-8-5----5-5-3-5---5-4-3----3-3-1-3-5--------13-12-8|





Voy hipnotizando mi ansiedad
voy maquillando lo que soy
Voy preparando mi disfraz

Eb|-------------------------------------------------------------------------|
Bb|-------------------------------------------------------------------------|
Gb|-------------------------------------------------------------------------|
Db|-------------------------------------------------------------------------|   
Ab|------------------8-------------------3--------------------3-4-5---------|
Eb|--10---10-10-8-10---10-8-5----5-5-3-5---5-4-3----3-3-1-3-5--------13-12-8|





Soy un primerizo en precaución
Y un entusiasta de explotar
No parare hasta reventar

Eb|-----------------------------------------------------------|
Bb|-----------------------------------------------------------|
Gb|-----------------------------------------------------------|
Db|-----------------------------------------------------------|    
Ab|------------------8-------------------3--------------------|
Eb|--10---10-10-8-10---10-8-5----5-5-3-5---5-4-3----3-3-1-3-5-|


Eb|-------------------------------------------|
Bb|-------------------------------------------|
Gb|-------------------------------------------|
Db|-------------------------------------------|    
Ab|-3-4-5---5-5-5-5-5-------5-5-5-5-5--6-6-6-5|
Eb|-------------------6-6-5-------------------|




G#5         G5      
Y a mi lado se transforman los cuerpos

D5            G#5            
Voy improvisando. 

F'5                             A5
Quemando el suelo detrás de mi.

D5                  G#5
El corazón ya ha vomitado

G5
Lo que fui...



D5            G#5
Voy chapoteando

F'5                        A5
Y azucarando lo que te di

D5                 G#5
El corazon ya ha sepultado

G5
Lo que vi...


Eb|------------------------------------------------------------------------|
Bb|------------------------------------------------------------------------|
Gb|------------------------------------------------------------------------|
Db|------------------------------------------------------------------------|
Ab|------------------8-------------------3--------------------3-4-5--------|
Eb|--10---10-10-8-10---10-8-5----5-5-3-5---5-4-3----3-3-1-3-5-------13-12-8|


Eb|-------------------------------------------|
Bb|-------------------------------------------|
Gb|-------------------------------------------|
Db|-------------------------------------------|
Ab|---------3--------------------3-4-5--------|
Eb|-5-5-3-5---5-4-3----3-3-1-3-5-------13-12-8|






Voy aborreciendo lo usual
Acariciando la infraccion
En cada paso que he de dar

Eb|------------------------------------------------------|
Bb|------------------------------------------------------|
Gb|------------------------------------------------------|
Db|------------------------------------------------------| PALM MUTE
Ab|------------------------------------------------------|
Eb|-10-10-10-10-10-10-10---5-5-5-5-5-5-5---3-3-3-3-3-3-3-|

Eb|------------------------------------|
Bb|------------------------------------|
Gb|------------------------------------|
Db|------------------------------------| PALM MUTE (Alternando)
Ab|-5-5-5-7---5-5-5-3---5-5-5-7---5-5-7|
Eb|------------------------------------|


Y hoy, aunque me cueste respirar
He llegado a la conclusión
De que ya no quiero parar

Eb|------------------------------------------------------|
Bb|------------------------------------------------------|
Gb|------------------------------------------------------|
Db|------------------------------------------------------| PALM MUTE
Ab|------------------------------------------------------|
Eb|-10-10-10-10-10-10-10---5-5-5-5-5-5-5---3-3-3-3-3-3-3-|

Eb|------------------------------------|
Bb|------------------------------------|
Gb|------------------------------------|
Db|------------------------------------|
Ab|-5-5-5-5-5--------5-5-5-5-5--6-6-6-5|
Eb|------------6-6-5-------------------|

 


G#5         G5      
Y a mi lado se transforman los cuerpos

D5            G#5            
Voy improvisando. 

F'5                             A5
Quemando el suelo detrás de mi.

D5                  G#5
El corazón ya ha vomitado

G5
Lo que fui...



D5            G#5
Voy chapoteando

F'5                        A5
Y azucarando lo que te di

D5                 G#5
El corazon ya ha sepultado

G5
Lo que vi...



D5-D5-D5                

Eb|-----------|
Bb|-----------|             
Gb|-----------|
Db|-----------|
Ab|5-5-5------|
Eb|------6-6-5|



D5-D5-D5

Eb|--------------|
Bb|--------------|
Gb|--------------|
Db|--------------|
Ab|5-5-5--8-8-7-3|
Eb|--------------|



                                        SOLO
Eb|------------------------------------------------------------------------|
Bb|------------------------------------------------------------------------|
Gb|---------10-10-10-9-------9-9-10-12-----10-10-10-9-------10-h9-h10-h9---|
Db|-slide-7------------10--------------7--------------12-10--------------7-| 
Ab|------------------------------------------------------------------------|
Eb|------------------------------------------------------------------------|

Eb|-------------------------------------------12-12|
Bb|-------------------------------------10-10------|
Gb|-9-9-9-10-12-------9-9-10-12-----9-9------------|
Db|-------------10--------------7-7----------------| 
Ab|------------------------------------------------|
Eb|------------------------------------------------|





D5            G#5            
Voy improvisando. 

F'5                             A5
Quemando el suelo detrás de mi.               CLEAN (LIMPIO)

D5                  G#5
El corazón ya ha vomitado


Lo que fui...


Eb|--X--X--X--X|
Bb|--X--X--X--X|
Gb|--X--X--X--X|
Db|--X--X--X--X|
Ab|--X--X--X--X|
Eb|--X--X--X--X|



D5            G#5            
Voy improvisando. 

F'5                             A5
Quemando el suelo detrás de mi.

D5                  G#5
El corazón ya ha vomitado

G5
Lo que fui...



D5            G#5
Voy chapoteando

F'5                        A5
Y azucarando lo que te di

D5                 G#5
El corazon ya ha sepultado

G5
Lo que vi...


Eb|--X--X--X--X|
Bb|--X--X--X--X|
Gb|--X--X--X--X|
Db|--X--X--X--X|
Ab|--X--X--X--X|
Eb|--X--X--X--X|


        D5


**http://www.youtube.com/user/pignoise55**
Добавлено: 02.06.2013
Другие материалы по этой песне:
  • Аккорды и текст

Страница создана 02.06.2013
http://primanota.ru/pignoise/voy-chords.htm
Привет, Гость.
Предлагаем пройти революционный курс по гитаре.
Подарок от PrimaNota.Ru, забирай!