PrimaNota.ru - самый крупный в мире бесплатный архив песенных текстов, аккордов, табулатур и нот


Pignoise - Dame Tu Voz - таба, видео

Регистрация Запомнить меня
Войти через:  Facebook Google Twitter Vk Yandex Mail.ru

Pignoise - Dame Tu Voz - таба, видео

Печатать
Просмотров: 77
-------------------------------------------------------------------------------
                             Dame Tu Voz - Pignoise
-------------------------------------------------------------------------------
Tabbed by: pignoise55 // @RubenMenArq
E-mail: pignoise94@gmail.com

Tuning: 1/2 tono menos: Eb, Ab, Db, Gb, Bb, Eb.

s/:Slide

P.M: Palm Mute


Eb|---9-10----9-10----12-10-9----10-9----9-10-----9-10----9-10----12-10-9----10-9----9-10-|
Bb|-0-------0-------0----------0-------0--------------------------------------------------|
Gb|---------------------------------------------0-------0-------0----------0-------0------|
Db|---------------------------------------------------------------------------------------|
Ab|---------------------------------------------------------------------------------------|
Eb|---------------------------------------------------------------------------------------|  

Eb|---9-10----9-10----12-10-9----10-9----9-10-----9-10-----9-10------12-10-9------10-9-----9-10-|
Bb|---------------------------------------------------------------------------------------------|
Gb|-9-------9-------9----------9-------9-------11-------11--------11-----------11-------11------|
Db|---------------------------------------------------------------------------------------------| 
Ab|---------------------------------------------------------------------------------------------|
Eb|---------------------------------------------------------------------------------------------|



        Busque demasiado lejos lo que tengo en el espejo,

        deje mis pisadas olvidadas sobre cualquier suelo.

        Di mil punaladas escondidas en todos mis besos,

        cerre mis cortinas, para que no vieran lo que hay dentro.



Eb|---9-10----9-10----12-10-9----10-9----9-10-----9-10----9-10----12-10-9----10-9----9-10-|
Bb|-0-------0-------0----------0-------0--------------------------------------------------|
Gb|---------------------------------------------0-------0-------0----------0-------0------|
Db|---------------------------------------------------------------------------------------|
Ab|---------------------------------------------------------------------------------------|
Eb|---------------------------------------------------------------------------------------|  

Eb|---9-10----9-10----12-10-9----10-9----9-10-----9-10-----9-10------12-10-9------10-9-----9-10-|
Bb|---------------------------------------------------------------------------------------------|
Gb|-9-------9-------9----------9-------9-------11-------11--------11-----------11-------11------|
Db|---------------------------------------------------------------------------------------------| 
Ab|---------------------------------------------------------------------------------------------|
Eb|---------------------------------------------------------------------------------------------|


        Libre mis batallas dentro del silencio,

        balas esquivadas que me dan aliento.

        Solo sobrevive, sigue con el juego,

                 F#5 (FA#5) | P.M
        cogeme la mano, juntos enfrentemos nuestros miedos



  G5 (SOL5)     A5 (LA5)   D5 (RE5)    F#5 (FA#5)
        Da       me          tu           voz

  G5 (SOL5)     A5 (LA5)   D5 (RE5)    C#5 (DO#5)
        Da       me          tu           voz

  G5 (SOL5)     A5 (LA5)      B5 (SI5)
        Da       me          tu    voz


        Hoy las cicatrices cubren las heridas,

        pruebas superadas que marcan mi vida.

        Ya no tengo prisa, Vivo el dia a dia.

        Abro las cortinas, ahora todos miran.


Eb|---9-10----9-10----12-10-9----10-9----9-10-----9-10----9-10----12-10-9----10-9----9-10-|
Bb|-0-------0-------0----------0-------0--------------------------------------------------|
Gb|---------------------------------------------0-------0-------0----------0-------0------|
Db|---------------------------------------------------------------------------------------|
Ab|---------------------------------------------------------------------------------------|
Eb|---------------------------------------------------------------------------------------|  

Eb|---9-10----9-10----12-10-9----10-9----9-10-----9-10-----9-10------12-10-9------10-9-----9-10-|
Bb|---------------------------------------------------------------------------------------------|
Gb|-9-------9-------9----------9-------9-------11-------11--------11-----------11-------11------|
Db|---------------------------------------------------------------------------------------------| 
Ab|---------------------------------------------------------------------------------------------|
Eb|---------------------------------------------------------------------------------------------|


        Busque demasiado lejos lo que tengo en el espejo,

        deje mis pisadas olvidadas sobre cualquier suelo.

        Di mil punaladas escondidas en todos mis besos,

                            F#5 (FA#5) | P.M
        cerre mis cortinas, para que no vieran lo que hay dentro.



  G5 (SOL5)     A5 (LA5)   D5 (RE5)    F#5 (FA#5)
        Da       me          tu           voz

  G5 (SOL5)     A5 (LA5)   D5 (RE5)    C#5 (DO#5)
        Da       me          tu           voz


  G5 (SOL5)     A5 (LA5)   D5 (RE5)    F#5 (FA#5)
        Da       me          tu           voz

  G5 (SOL5)     A5 (LA5)      B5 (SI5)
        Da       me          tu    voz



                                
                                        BRIDGE

Eb|----------------------------------------------------------------------------------------------|
Bb|----------------------------------------------------------------------------------------------|
Gb|----------------------------------------------------------------------------------------------|
Db|----------------------------------------------------------------------------------------------|  x2
Ab|-2-2-2---5-4---0---2-2-2---5-4----2-2-2---5-4---0---2-2-2---5-4-----------5-4---0---------5-4-|
Eb|--------------------------------------------------------------------2-2-2-----------2-2-2-----|


                                SOLO (GUITARRA 1)

Eb|----------------------------------------------------------------------------------------------|
Bb|----------------------------------------------------------------------------------------------|
Gb|----------------------------------------------------------------------------------------------|
Db|----------------------------------------------------------------------------------------------|  x2
Ab|-2-2---5-4---0---2-2---5-4-----2-2---5-4---0---2-2---5-4-----------------5-4---0-------5-4----|
Eb|--------------------------------------------------------------------2-2-----------2-2---------|


                                SOLO (GUITARRA 2)

Eb|----------------------------------------------------------------------------------------------|
Bb|-s/7-7-5---------s/7-7-5--------s/7-7-5---------s/7-7-5---------------------------------------|
Gb|----------7-6-------------7--------------7-6-------------7---------------7-6------------7-6---|
Db|-------------------------------------------------------------------S/4-4------7---S/4-4-------|  x2
Ab|----------------------------------------------------------------------------------------------|
Eb|----------------------------------------------------------------------------------------------|



                                        F#5 (FA#5) | P.M




  G5 (SOL5)     A5 (LA5)   D5 (RE5)    F#5 (FA#5)
        Da       me          tu           voz

  G5 (SOL5)     A5 (LA5)   D5 (RE5)    C#5 (DO#5)
        Da       me          tu           voz


  G5 (SOL5)     A5 (LA5)   D5 (RE5)    F#5 (FA#5)
        Da       me          tu           voz

  G5 (SOL5)     A5 (LA5)      B5 (SI5)
        Da       me          tu    voz



Eb|---9-10----9-10----12-10-9----10-9----9-10-|
Bb|-0-------0-------0----------0-------0------|
Gb|-------------------------------------------|
Db|-------------------------------------------|
Ab|-------------------------------------------|
Eb|-------------------------------------------|  
Добавлено: 20.12.2015
Другие материалы по этой песне:
  • Аккорды и текст

Страница создана 20.12.2015
http://primanota.ru/pignoise/dame-tu-voz-chords.htm
Привет, Гость.
Предлагаем пройти революционный курс по гитаре.
Подарок от PrimaNota.Ru, забирай!