PrimaNota.ru - самый крупный в мире бесплатный архив песенных текстов, аккордов, табулатур и нот


Piglet - Bug Stomp - таба, видео

Регистрация Запомнить меня
Войти через:  Facebook Google Twitter Vk Yandex Mail.ru

Piglet - Bug Stomp - таба, видео

Печатать
Просмотров: 49
-------------------------------------------------------------------------------
                             Bug stomp - Piglet
-------------------------------------------------------------------------------
Tabbed by:
Noah Uy

E-mail:

Noahuy12y@gmail.com

I'm not sure if this is right or not, but this is what I came up with. The tuning is standard, except you drop

the A string to a G

Tuning: e B G D G E


Key:

(t) Tap
(p) Pull of
(s) Slide
(h) Hammer on
Beginning Chords (Based off live version)
e|--------------------------------------------------------------------------|
B|--------------------------------------------------------------------------|
G|--0---------------8-----------------9-------------------------------------|
D|--12--------------------------------0-------------------------------------|
G|--12--------------6-----------------0-------------------------------------|
E|--0---------------------------------0-------------------------------------|

Fast Part:

e|---------------------------------------------------------------------------|
B|---8-----------------------------------------------------------------------|
G|---7--7--5---0-------------------------------------------------------------|
D|------9--4---0-------------------------------------------------------------|
G|0---0--0---0---------------------------------------------------------------|
E|---------------------------------------------------------------------------|
In the Album version he switches back and forth with E and G
e|---------------------------------------------------------------------------|
B|----8----------------------------------------------------------------------|
G|----7----7--5--0-----------------------------------------------------------|
D|---------9--4--0-----------------------------------------------------------|
G|---------------------------------------------------------------------------|
E|-0----0---0---0------------------------------------------------------------|

Tappy Part
e|---------------------------------------------------------------------------|
B|---------------------------------------------------------------------------|
G|-2-----t5--7p--0-----------------------------------------------------------|
D|-0-----------------3p-0-3h---s7--------------------------------------------|
G|-0-------------------------------------------------------------------------|
E|---------------------------------------------------------------------------|
(I'm not going to write the patters for times sake)
Part where it slows down
e|-----21---------17--------14-----------------------------------------------|
B|-----19---------17--------12-----------------------------------------------|
G|-----21---------19--------14-----------------------------------------------|
D|-----x----------0---------0------------------------------------------------|
G|--0--0----------0---------0------------------------------------------------|
E|---------------------------------------------------------------------------|

Little fill that comes after that the second time
e|--------------14------------------------------------------------------|
B|--------------12------(some pattern of that chord here)---------------|
G|------------- 14------------------------------------------------------|
D|--16--h17-------------------------------------------------------------|
G|----------------------------------------------------------------------|
E|----------------------------------------------------------------------|

Next Part
e|---------------------------------------------------------------------------|
B|---------------------------------------------------------------------------|
G|---------------------------------------------------------------------------|
D|----------2--0------7-4---------2--0----2--0-------------------------------|
G|----0-0---------0---------0--0-------0-------------------------------------|
E|---------------------------------------------------------------------------|

e|---------------------------------------------------------------------------|
B|---------------------------------------------------------------------------|
G|---------------------------------------------------------------------------|
D|---------------------------------------------------------------------------|
A|---------------------------------------------------------------------------|
E|---------------------------------------------------------------------------|


************************************

That's about all I know so far. Feel free to add improvements to this tab :)
************************************
Добавлено: 23.12.2015
Другие материалы по этой песне:
  • Аккорды и текст

Страница создана 23.12.2015
http://primanota.ru/piglet/bug-stomp-chords.htm
Привет, Гость.
Предлагаем пройти революционный курс по гитаре.
Подарок от PrimaNota.Ru, забирай!