PrimaNota.ru - самый крупный в мире бесплатный архив песенных текстов, аккордов, табулатур и нот


Pigeon John - Hey You - бас-таба, видео

Регистрация Запомнить меня
Войти через:  Facebook Google Twitter Vk Yandex Mail.ru

Pigeon John - Hey You - бас-таба, видео

Печатать
Просмотров: 158
Авторы: Pigeon John

Pigeon John - Hey You

First tab, but it's a rather easy song.

G|---------------------------------------------------------------|
D|---------------------------------------------------------------|
A|-----------3-3-4---4-4-4-3-3-----------------------------------| Play three times them
E|-3----3-3-3-----------------3----------------------------------|


G|---------------------------------------------------------------|
D|---------------------------------------------------------------|
A|-----------3-3-4---434343--------------------------------------| 
E|-3----3-3-3--------------3-------------------------------------|
Добавлено: 15.08.2015
Другие материалы по этой песне:
  • Аккорды и текст

Страница создана 15.08.2015
http://primanota.ru/pigeon-john/hey-you-chords.htm
Привет, Гость.
Предлагаем пройти революционный курс по гитаре.
Подарок от PrimaNota.Ru, забирай!