PrimaNota.ru - самый крупный в мире бесплатный архив песенных текстов, аккордов, табулатур и нот


Pig - Wrecked - таба, видео

Регистрация Запомнить меня
Войти через:  Facebook Google Twitter Vk Yandex Mail.ru

Pig - Wrecked - таба, видео

Печатать
Просмотров: 78
Уроки эстрадного вокала в Санкт-Петербурге
-------------------------------------------------------------------------------
                             Wrecked - PIG
-------------------------------------------------------------------------------
Tabbed by:mjwilesmith53
E-mail:mjwilesmith53@gmail.com

Tuning:E standard
This is mainly Steve White's parts live, a lot of Jules' playing seems to be little fills, 
each version is different, the album is different to the live performances in '99 and different again later

Pre-verse riff
e|-----------------------------------------------------------------------|
B|-----------------------------------------------------------------------|
G|-----------------------------------------------------------------------|
D|--2--2--2--4---5---2--2--2---9----7--2--2--2--4----5-----2--2--2--2----|
A|--2--2--2--4-/-5---2--2--2---7-\--5--2--2--2--4-/--5-----2--2--2--2----|
E|--0--0--0--2---3---0--0--0-----------0--0--0--2----3-----0--0--0--0----|
    x  x  x          x  x  x            x  x  x            x  x  x  x

Verse Riff that leads into pre-chorus (Repeats a couple times)
e|---------------------------------------------------------------------------|
B|---------------------------------------------------------------------------|
G|---------------------------------------------------------------------------|
D|---------------------------------------------------------------------------|
A|--7h8----------------------------------------------------------------------|
E|------xxxxxxxx--3h4-2h3-5h6------------------------------------------------|

Pre-chorus Try to add some sort of harmonics and the amount of times you play changes with the performance 
then finish on a fill
e|---------------------------------------------------------------------------|
B|---------------------------------------------------------------------------|
G|--4---------4----------4-4-4-----------------------------------------------|
D|--4---------4----------4-4-4-----------------------------------------------|
A|--2---------2----------2-2-2-----------------------------------------------|
E|---------------------------------------------------------------------------|

Chorus (just repeats over with occasional fills from guitar two)
e|---------------------------------------------------------------------------|
B|---------------------------------------------------------------------------|
G|---------------------------------------------------------------------------|
D|----------9---7--------7---9-----------------------------------------------|
A|----------7-\-5--------5-/-7-----------------------------------------------|
E|---xxxxxx-------xxxxxx-----------------------------------------------------|

some of the different verse fills
e|---------------------------------------------------------------------------|
B|---------------------------------------------------------------------------|
G|---------------------------14----------------------------------------------|
D|--12----------------14-12-----12b-\----------------------------------------|
A|--10b-\---------12---------------------------------------------------------|
E|---------------------------------------------------------------------------|

Break (Live Steve did an E minor solo while Guenter played these little phrases quickly at different rhythms)
e|---------------------------------------------------------------------------|
B|---------------------------------------------------------------------------|
G|---------------------------------------------------------------------------|
D|---------------------------------------------------------------------------|
A|----7h8------7h8p7------9h10-----------------------------------------------|
E|----------------------------------xxxxxxx----------------------------------|

During the later verses these riffs are introduced on the album version
e|-----------------------------------7----------------------------------------|
B|-----------------------------------6----------------------------------------|
G|-----------------------------------4----------------------------------------|
D|---2--2--2--2---------------------------------------------------------------|
A|---2--2--2--2---------------------------------------------------------------|
E|---0--0--0--0---------------------------------------------------------------|
     x  x  x  x



************************************

| /   slide up
| \   slide down
| h   hammer-on
| p   pull-off
| ~   vibrato
| +   harmonic
| x   Mute note
| b   Bend
| pb  Pre-bend
| br  Bend release
| pbr Pre-bend release
| brb Bend release bend

************************************
Добавлено: 22.06.2016
Другие материалы по этой песне:
  • Аккорды и текст

Страница создана 22.06.2016
http://primanota.ru/pig/wrecked-chords.htm
Привет, Гость.
Предлагаем пройти революционный курс по гитаре.
Подарок от PrimaNota.Ru, забирай!