PrimaNota.ru - самый крупный в мире бесплатный архив песенных текстов, аккордов, табулатур и нот


Piero Pel - Pugni Chiusi - аккорды и текст, таба, видео

Регистрация Запомнить меня
Войти через:  Facebook Google Twitter Vk Yandex Mail.ru

Piero Pel - Pugni Chiusi - аккорды и текст, таба, видео

Печатать
Просмотров: 100
Pugni Chiusi
Piero Pel
PIERO PELU' – PUGNI CHIUSI
as tabbed by Giacomo Pasquali
www.myspace.com/giacomopasquali


s     slide

h     hammer-on

p     pull-off

b     bending

v     vibrato

*     harmonic


GUITAR INTRO [ & VERSE ] – INTRO E STROFA

   G            D            C            Em                  C
e|------------------------------------------------------------------------|
B|-------3-------3--------------------------------------------------------|
G|---0-----0-------0---0-----------0---------0----------------------0-----|
D|-5---5-----5-4-----4---4-----2-----2---------2-----2-----2----2-----2---|
A|-------------------------5-3---3-----3---2-----0h2---0h2----3---3-----3-|
E|---------------------------------------0--------------------------------|

   D               G           D
e|----------------------------------------------|
B|-----------------------3---------3-----3------|
G|---4---2---0---0---4-----4-----0-----0-----0--|
D|-0---0---0---4---5---5-----5-4-----2-----0----|
A|----------------------------------------------|
E|----------------------------------------------|

CHORUS - RITORNELLO

   Eb  F    G          GUITAR FILL        Eb  F  Bb  Eb  F G G/F# Em A D
e|-6---8----10--|-10b11b10--------------|----------|---------------------|
B|-8---10---12--|----------10b11b10-----|----------|---------------------|
G|-8---10---12--|-------------------12v-|----------|---------------------|
D|-8---10---12--|-----------------------|----------|---------------------|
A|-6---8----10--|-----------------------|----------|---------------------|
E|--------------|-----------------------|----------|---------------------|

GUITAR SOLO - ASSOLO

   G            D               C                Em
e|---------------------------------------------------------10p7----------|
B|-----3-3h5-3--------------------------------8------10b12------10-8v-7--|
G|-2s4----------2h4p2p0h2-------------------7---7s9----------------------|
D|------------------------5-2p0-------5-7s9------------------------------|
A|------------------------------3-5s7------------------------------------|
E|-----------------------------------------------------------------------|


         C               D           G         D
e|-----------------------------------------------------------------------|
B|------------8-10-10s12-10-12b13----12b13-----10h12-10------------------|
G|-9p7-7s9--7---------------------12-------12--9-----9---7h9-7-7---------|
D|-------------------------------------------------------7---7-----------|
A|-----------------------------------------------------------------------|
E|-----------------------------------------------------------------------|


END - FINALE

                       D          C         G
   [..] e abbraccio la vita    con te [..] eee
e|-----------------------------------------------------------------------|
B|-----------------------------------------------------------------------|
G|-----------------------------------------------------------------------|
D|-----------------------------------------------------------------------|
A|-----------------------------------------------------------------------|
E|-----------------------------------------------------------------------|
Добавлено: 28.11.2013
Вам также может быть интересно:
Другие материалы по этой песне:
  • Аккорды и текст

Страница создана 05.03.2012
http://primanota.ru/piero-pel/pugni-chiusi-chords.htm
Привет, Гость.
Предлагаем пройти революционный курс по гитаре.
Подарок от PrimaNota.Ru, забирай!