PrimaNota.ru - самый крупный в мире бесплатный архив песенных текстов, аккордов, табулатур и нот


Pierce The Veil - The Sky Under The Sea - текст песни, таба, видео

Регистрация Запомнить меня
Войти через:  Facebook Google Twitter Vk Yandex Mail.ru

Pierce The Veil - The Sky Under The Sea - текст песни, таба, видео

Печатать
Просмотров: 99
Авторы: Tom Denney, Vic Fuentes
Авторы текста: Vic Fuentes
-----------------------------------------------------------------------------
                 The Sky Under the Sea - Pierce the Veil
-----------------------------------------------------------------------------
Tabbed by:Kssmycnvrs

Tuning:Half Step Down

Intro(x2)
e|--------------------------------------------------------------------------|
B|-------88----------88----------77----------77-----------------------------|
G|----99----99----99----99----88----88----88----88--------------------------|
D|--------------------------------------------------------------------------|
A|-77----------77----------66----------66-----------------------------------|
E|--------------------------------------------------------------------------|

Intro continued
e|--------------------------------------------------------------------------|
B|-------88----------88----------10-10----------10-10----------11-11--------|
G|----99----99----99----99----88-------88----88-------88----99-------99-----|
D|--------------------------------------------------------------------------|
A|-77----------77----------66-------------66-------------77-----------------|
E|--------------------------------------------------------------------------|

e|--------------------------------------------------------------------------|
B|-------11-11----------10-10--13-12-13-12-10-------------------------------|
G|----99-------99----88-----------------------------------------------------|
D|--------------------------------------------------------------------------|
A|-77-------------66--------------------------------------------------------|
E|--------------------------------------------------------------------------|

Verse 1(x2)
e|--------------------------------------------------------------------------|
B|--------------------------------------------------------------------------|
G|--------------------------------------------------------------------------|
D|-22-222-2-55-5-88-8-11-111-1-11-44-55-44----------------------------------|
A|-22-222-2-55-5-88-8-11-111-1-11-22-33-22----------------------------------|
E|-22-222-2-55-5-88-8-11-111-1-11-------------------------------------------|

e|--------------------------------------------------------------------------|
B|--------------------------------------------------------------------------|
G|--------------------------------------------------------------------------|
D|-2-2-2-2-2---2---1---2---11111-1------------------------------------------|
A|-2-2-2-2-2---2---1---2---11111-1------------------------------------------|
E|-2-2-2-2-2---2---1---2---11111-1------------------------------------------|
                           xxxxx

Chorus                         
e|---------------------------------------|----------------------------------|
B|---------------------------------------|----------------------------------|
G|---------------------------------------|----------------------------------|
D|-555555-44-222222-44-22222222-00000000-|----------2-----------------------|
A|-333333-22-000000-22-22222222-00000000-|-00000000-2-----------------------|
E|---------------------22222222-00000000-|-00000000-2-----------------------|
                                           xxxxxxxx

Verse 2
e|--------------------------------------------------------------------------|
B|--------------------------------------------------------------------------|
G|--------------------------------------------------------------------------|
D|--------------------------------------------------------------------------|
A|--------------------------------33-22-00-------------------666666666------|
E|-22222222-5555-8888-1111111111----------222222222-55555555----------------|

(baby, you'll be alright...)
e|---------------|----------------------------------------------------------|
B|---------------|----------------------------------------------------------|
G|---------------|----------------------------------------------------------|
D|--------------2|1111111111111111-22222222-555555-88----------2------------|
A|-3~-2~-0~-----2|1111111111111111-22222222-555555-88-11111111-2------------|
E|----------5~--2|1111111111111111-22222222-555555-88-11111111-2------------|
                                                      xxxxxxxx
Chorus again.

Bridge
e|--------------------------------------------------------------------------|
B|--------------------------------------------------------------------------|
G|--------------------------------------9999-11-11-11-11-12-12-12-12-77-----|
D|--------------------------------------xxxx-x-x-x-x--x--x--x--x--x--xx-----|
A|-000-22-22--000-22-22--000-22-22-000--7777-9--9--9--9--10-10-10-10-55-----|
E|-000-22-22--000-22-22--000-22-22-000--------------------------------------|

                                                        (fourth time)
e|----------15-14-12-------|----------------------------|-------------------|
B|-------12----------13-12-|----------------------------|-------------------|
G|----12-------------------|-14-12----12-14-12-11-12(x3)|-14-12----12-14-11b|
D|-14----------------------|-------14-------------------|-------14----------|
A|-------------------------|----------------------------|-------------------|
E|-------------------------|----------------------------|-------------------|

(and do you really trust your tongue...)(and did you call me last night...)
e|-------------------------------------|------------------------------------|
B|-------------------------------------|------------------------------------|
G|-------------------------------------|------------------------------------|
D|-------------------55555555-44444444-|------------------------------------|
A|-22222222-11111111-33333333-22222222-|2222222222222222-11111111111111-----|
E|-22222222-11111111-------------------|2222222222222222-11111111111111-----|
   xxxxxxxx xxxxxxxx xxxxxxxx xxxxxxxx  xxxxxxxxxxxxxxxx xxxxxxxxxxxxxx


e|---------------------------|----------------------------------------------|
B|---------------------------|----------------------------------------------|
G|---------------------------|----------------------------------------------|
D|-44444444-44444444-5-4-2-5-|2-2-2-2-5-10-10-10-10-10-1-1-1-1-9-9-1-1------|
A|-22222222-22222222-3-2-0-5-|2-2-2-2-5-10-10-10-10-10-1-1-1-1-9-9-1-1------|
E|-------------------------5-|2-2-2-2-5-10-10-10-10-10-1-1-1-1-9-9-1-1------|
   xxxxxxxx

(do you think you're the only one...)
e|--------------------------------------------------------------------------|
B|--------------------------------------------------------------------------|
G|--------------------------------------------------------------------------|
D|-2~-10~-1~-9~-2~-10~-1-1-1-1-1-1-1-1--------------------------------------|
A|-2~-10~-1~-9~-2~-10~-1-1-1-1-1-1-1-1--------------------------------------|
E|-2~-10~-1~-9~-2~-10~-1-1-1-1-1-1-1-1--------------------------------------|


e|--------------------------------------------------------------------------|
B|--------------------------------------------------------------------------|
G|--------------------------------------------------------------------------|
D|-555555-44-222222-44------------------------------------------------------|
A|-333333-22-000000-22-22222222-00000000------------------------------------|
E|---------------------22222222-00000000------------------------------------|
   xxxxxx xx xxxxxx xx xxxxxxxx xxxxxxxx

Chorus again.

Outro(x2)
e|--------------------------------------------------------------------------|
B|--------------------------------------------------------------------------|
G|----------------------------------------------88888888--------------------|
D|-222-222-55-555-888-888-88-888-222-222-55-555-xxxxxxxx--------------------|
A|-222-222-55-555-888-888-88-888-222-222-55-555-66666666--------------------|
E|-222-222-55-555-888-888-88-888-222-222-55-555-----------------------------|

************************************

| /   slide up
| \   slide down
| h   hammer-on
| p   pull-off
| ~   vibrato
| +   harmonic
| x   Mute note
| b   Bend
| pb  Pre-bend
| br  Bend release
| pbr Pre-bend release
| brb Bend release bend

************************************
Добавлено: 08.12.2013
Другие материалы по этой песне:
  • Аккорды и текст

Страница создана 20.09.2013
http://primanota.ru/pierce-the-veil/the-sky-under-the-sea-chords.htm
Привет, Гость.
Предлагаем пройти революционный курс по гитаре.
Подарок от PrimaNota.Ru, забирай!