PrimaNota.ru - самый крупный в мире бесплатный архив песенных текстов, аккордов, табулатур и нот


Pierce The Veil - Currents Convulsive - текст песни, таба, видео

Регистрация Запомнить меня
Войти через:  Facebook Google Twitter Vk Yandex Mail.ru

Pierce The Veil - Currents Convulsive - текст песни, таба, видео

Печатать
Просмотров: 88
This is more from the song from my last tab, because i found out more because no one 
is putting this tab up. This is just different parts og the song and i learned it all by 
and it sound about 99% right but if im not plz tell me nd i'll try to figure out wat i did wrong!


Guitar 1
E|-----------------------------------------|
B|-----------------------------------------|
G|-----------------------------------------|
D|-----------------------------------------| x2
A|--4-0-----4-0-----2-0-----2-0-----2-0----|
D|4-------4-------2-------2-------2--------|

E|-----------------------------------------|
B|-----------------------------------------|
G|-----------------------------------------|
D|-----------------------------------------| x2
A|--2-0-----2-0-----4-0-----4-0-----4-0----|
D|0-------0-------0-------0-------0--------|


Guitar 2
E|-----------------------------------------|
B|-----------------------------------------|
G|---14---11---13--------------------------|
D|---xx-----xx-----xx----------------------| x2
A|---12---9----11--------------------------|
D|-----------------------------------------|


This part happens before Kevin starts singing
Guitar 1
E|-----------------------------------------|
B|-----------------------------------------|
G|-----------------------------------------|
D|-----------------------------------------|
A|--9-0-----9-0-----11-0-----11-0-----11-0-|
D|0-------0-------0-------0-------0--------|

I couldn't figure out the tabs in between here


Sober up and bury the empty cup...
Guitar 1
E|-----------------------------------------|
B|-----------------------------------------|
G|--*-***--*-***--*-***--*-*---------------|
D|--7-444--7-444--7-444--7~9---------------|
A|-----------------------------------------|
D|-----------------------------------------|

E|-----------------------------------------|
B|-----------------------------------------|
G|--*-***--*-***--*-***--*-*---------------|
D|--6-222--6-222--6-222--6~7---------------|
A|-----------------------------------------|
D|-----------------------------------------|

E|-----------------------------------------|
B|-----------------------------------------|
G|--*-***--*-***--*-******-----------------|
D|--4-000--4-000--4~777777--x2-------------|
A|-----------------------------------------|
D|-----------------------------------------|

Pause once the guitar 1 starts then go
Guitar 2
E|--------------------------------------------|
B|--------------------------------------------|
G|--------------------------------------------|
D|--7-7777777777-7--X3-7~9--------------------|
A|--------------------------------------------|
D|--------------------------------------------|

E|-------------------------------------------|
B|-------------------------------------------|
G|-------------------------------------------|
D|7-7777777777~44--4-44444444444~22----------|repeat the 4's again
A|-------------------------------------------|
D|-------------------------------------------|

Guitar 1
E|-----------------------------------------|
B|-----------------------------------------|
G|-----------------------------------------|
D|--7-444--7-444--7-444--7~9--x6-----------|
A|-----------------------------------------|
D|-----------------------------------------|

E|-----------------------------------------|
B|-----------------------------------------|
G|-----------------------------------------|
D|--6-9-7-9~11-14-12-11--------------------|
A|-----------------------------------------|
D|-----------------------------------------|

Then when the dude starts talking this part i played
Guitar 1
E|--1414-17-16-17-19-17-16h17p16-14--|
B|-----------------------------------|
G|-----------------------------------|repeat until he says Beyond the sea blue light...
D|-----------------------------------|
A|-----------------------------------|
D|-----------------------------------|

Guitar 2
E|-----------------------------------------|
B|-----------------------------------------|
G|-----------------------------------------|
D|-------44--7-----------------------------|
A|-------44--7-----------------------------|
D|---3^--44--7---3^------------------------|

The ending
E|--17-16-14----14-16-14-16-14-16-14-16-14-|
B|---------x3------------------------------|
G|-----------------------------------------|
D|-----------------------------------------|
A|-----------------------------------------|
D|-----------------------------------------|
So here's the currents convulsive tab plz comment nd if u found out the rest plz tell me!=)
Добавлено: 05.09.2013
Другие материалы по этой песне:
  • Аккорды и текст

Страница создана 05.09.2013
http://primanota.ru/pierce-the-veil/currents-convulsive-chords.htm
Привет, Гость.
Предлагаем пройти революционный курс по гитаре.
Подарок от PrimaNota.Ru, забирай!