PrimaNota.ru - самый крупный в мире бесплатный архив песенных текстов, аккордов, табулатур и нот


Pierce Brothers - Flying Home Live - таба, видео

Регистрация Запомнить меня
Войти через:  Facebook Google Twitter Vk Yandex Mail.ru

Pierce Brothers - Flying Home Live - таба, видео

Печатать
Просмотров: 70
-------------------------------------------------------------------------------
                   FLYING HOME - The Pierce Brothers
-------------------------------------------------------------------------------

This isn't meant to be perfect, but it should give you a rough idea.  I guess personally this just isn't the 
sort of song I would attempt to get note for note, so if that's what you're after then this may not be the tab
for you.


Tabbed from their Tram Sessions performance on YouTube, https://www.youtube.com/watch?v=5R1ITMpChio



Tuning:  Open D (DADADF#)   or  Open C  (CGCGCE) Capo II

         The Pierce Brothers use open D, but i prefer open C capo II.  It's identical, but breaks less strings.
   

INTRO


F#|--------------------------------|--------------------------------|
 D|-------2h4p2p0-------0----------|-------2h4p2p0-----------0------|
 A|---------------0h2/5---5--------|-------------------0h2/5---5----|
 D|--------------------------------|--------------------------------|
 A|--------------------------------|--------------------------------|
 D|---0----------------------------|---0----------------------------|

F#|--------------------------------|--------------------------------|
 D|-------2h4p2p0-------0----------|-----0-----------------0-----0--|
 A|---------------0h2/5---5--------|---------5--5/7-----------7-----|
 D|--------------------------------|--------------------------------|
 A|--------------------------------|--------------------------------|
 D|---0----------------------------|-5-----------------7------------|

F#|-------3h5p5p0------------------|--------------------------------|
 D|---------------2h4p2------------|-------2h4p2p0-----------0------|
 A|----------------------0h2/5-----|-------------------0h2/5---5----|
 D|--------------------------------|--------------------------------|
 A|--------------------------------|--------------------------------|
 D|---0----------------------------|---0----------------------------|

F#|-----------------0--------------|-----------------0--------------|
 D|------0--------------0----------|-----0--------------0-----------|
 A|----------5--------------5/7----|--------7---------------7/5-----|
 D|------------0-------------------|----------0---------------------|
 A|--------------0-----------------|------------0-------------------|
 D|--5-----------------------------|--7-----------------------------|

F#|--------------------------------|--------------------------------|
 D|-------2h4p2p0-------0----------|-------2h4p2p0-----------0------|
 A|---------------0h2/5---5--------|-------------------0h2/5---5----|
 D|--------------------------------|--------------------------------|
 A|--------------------------------|--------------------------------|
 D|---0----------------------------|---0----------------------------|

F#|-----------------0--------------|-----------------0--------------|
 D|------0--------------0----------|-----0--------------0-----------|
 A|----------5--------------5/7----|--------7---------------7/5-----|
 D|------------0-------------------|----------0---------------------|
 A|--------------0-----------------|------------0-------------------|
 D|--5-----------------------------|--7-----------------------------|

F#|-------3h5p5p0------------------|--------------------------------|
 D|---------------2h4p2------------|-------2h4p2p0-----------0------|
 A|----------------------0h2/5-----|-------------------0h2/5---5----|
 D|--------------------------------|--------------------------------|
 A|--------------------------------|--------------------------------|
 D|---0----------------------------|---0----------------------------|

F#|-----------------0--------------|-----------------0--------------|
 D|------0--------------0----------|-----0--------------0-----------|
 A|----------5--------------5/7----|--------7---------------7/5-----|
 D|------------0-------------------|----------0---------------------|
 A|--------------0-----------------|------------0-------------------|
 D|--5-----------------------------|--7-----------------------------|

F#|-----------------0--------------|-----------------0--------------|
 D|------0--------------0----------|-----0--------------0-----------|
 A|----------9--------------9/12---|-------12---------------7/5-----|
 D|------------0-------------------|----------0---------------------|
 A|--------------0-----------------|------------0-------------------|
 D|--9-----------------------------|--0-----------------------------|

F#|--------------------------------|-----------------0--------------|
 D|------0--------------0----------|-----0--------------0-----------|
 A|---------5--5/7----------5/7----|--------5---------------7/5-----|
 D|--------------------------------|----------0---------------------|
 A|--------------------------------|------------0-------------------|
 D|--7--------------9--------------|--5-----------------------------|

                                                           I have'nt
F#|-0------------------------------|--------------------------------|
 D|-0------------------------------|--------------------------------|
 A|-0------------------------------|--------------------------------|
 D|-0------------------------------|--------------------------------|
 A|-0------------------------------|--------------------------------|
 D|-3------------------------------|--------------------------------|

   
...been here,                                              for a ....
F#|--------------------------------|--------------------------------|
 D|----------------------0---------|--------------------------------|
 A|-----------------0---------0----|--------------------------------|
 D|-------------0------------------|--------------------------------|
 A|--------------------------------|--------------------------------|
 D|--5-----------------------------|---7----------------------------|


 ...while
F#|---------------------3----------|--------------------------------|
 D|----------------2h4------2------|--------------------------------|
 A|--------------------------------|--------------------------------|
 D|--------------------------------|--------------------------------|
 A|--------------------------------|--------------------------------|
 D|---0----------------------------|--------------------------------|


...face light up            as the coal            came down   the ...
F#|--------------------------------|--------------------------------|
 D|----------------------0---------|--------------------------------|
 A|-----------------0---------0----|--------------------------------|
 D|-------------0------------------|--------------------------------|
 A|--------------------------------|--------------------------------|
 D|--5-----------------------------|---7----------------------------|


 ...line                                                   conver...
F#|---------------------3/5---3----|--------------------------------|
 D|----------------2h4-------------|--------------------------------|
 A|--------------------------------|--------------------------------|
 D|--------------------------------|--------------------------------|
 A|--------------------------------|--------------------------------|
 D|---0----------------------------|--------------------------------|


 ...sation  took    new             territory ,                to...
F#|--------------------------------|--------------------------------|
 D|----------------------0---------|--------------------------------|
 A|-----------------0---------0----|--------------------------------|
 D|-------------0------------------|--------------------------------|
 A|--------------------------------|--------------------------------|
 D|--5-----------------------------|---7----------------------------|

...night.                                                    And I...
F#|--------------------------------|--------------------------------|
 D|------------2h4p2p0-------------|--------------------------------|
 A|------------------------2/5--5--|--------------------------------|
 D|--------------------------------|--------------------------------|
 A|--------------------------------|--------------------------------|
 D|---0----------------------------|--------------------------------|

...wait                                                    And I...
F#|--------------------------------|--------------------------------|
 D|----------------------0---------|--------------------------------|
 A|-----------------0---------0----|--------------------------------|
 D|-------------0------------------|--------------------------------|
 A|--------------------------------|--------------------------------|
 D|--5-----------------------------|---7----------------------------|

...wait
F#|--------------------------------|---0----------------0-----------|
 D|---------------------0----------|--------0---------------0-------|
 A|---------------0----------0-----|-----------0---------------0----|
 D|-----------0--------------------|--------------------------------|
 A|--------------------------------|--------------------------------|
 D|-0------------------------------|--------------------------------|
 
                                                 I'm flying on my
F#|--0-----------------------------|--------------------------------|
 D|--0-----------------------------|--------------------------------|
 A|--0-----------------------------|--------------------------------|
 D|--0-----------------------------|--------------------------------|
 A|--0-----------------------------|--------------------------------|
 D|--0-----------------------------|--------------------------------|


   own                                way
F#|--------------------------------|--------------------------------|
 D|----------------------0---------|--------------------------------|
 A|-----------------0---------0----|--------------------------------|
 D|-------------0------------------|--------------------------------|
 A|--------------------------------|--------------------------------|
 D|--5-----------------------------|---7----------------------------|

    home                                                   
F#|--------------------------------|----------------0---------------|
 D|------------2h4p2p0-------------|-----0--------------0-----------|
 A|---0--------------------2/5--5--|--------0-----------------0-----|
 D|---0----------------------------|----------0---------------------|
 A|---0----------------------------|------------0-------------------|
 D|---0----------------------------|--0-----------------------------|

F#|-----------------0--------------|-----------------0--------------|
 D|------0--------------0----------|-----0--------------0-----------|
 A|----------5--------------5/7----|--------7---------------7/5-----|
 D|------------0-------------------|----------0---------------------|
 A|--------------0-----------------|------------0-------------------|
 D|--5-----------------------------|--7-----------------------------|

                                                       I haven't
F#|---------3----3/5----3----------|--------------------------------|
 D|----2h4-------------------4-----|--4h5-4---0---------------------|
 A|--------------------------------|--------------------0-----------|
 D|--------------------------------|------------------------0-------|
 A|--------------------------------|--------------------------------|
 D|--0-----------------------------|--------------------------------|

    been here                                      for   too 
F#|-----------------0--------------|-----------------0--------------|
 D|------0--------------0----------|-----0--------------0-----------|
 A|----------5--------------5/7----|--------7---------------7/5-----|
 D|------------0-------------------|----------0---------------------|
 A|--------------0-----------------|------------0-------------------|
 D|--5-----------------------------|--7-----------------------------|

  long                                                 I  see   your
F#|-----------------0--------------|-----------------0--------------|
 D|------0--------------0----------|-----0--------------0-----------|
 A|----------0--------------0------|--------0---------------0-------|
 D|------------0-------------------|----------0---------------------|
 A|--------------0-----------------|------------0-------------------|
 D|--0-----------------------------|--0-----------------------------|

   face  and     I     hear   your   words,                   in the  
F#|-----------------0--------------|-----------------0--------------|
 D|------0--------------0----------|-----0--------------0-----------|
 A|----------5--------------5/7----|--------7---------------7/5-----|
 D|------------0-------------------|----------0---------------------|
 A|--------------0-----------------|------------0-------------------|
 D|--5-----------------------------|--7-----------------------------|

  throo-ooat                                           And oh what I
F#|-----------------0--------------|-----------------0--------------|
 D|------0--------------0----------|-----0--------------0-----------|
 A|----------0--------------0------|--------0---------------0-------|
 D|------------0-------------------|----------0---------------------|
 A|--------------0-----------------|------------0-------------------|
 D|--0-----------------------------|--0-----------------------------|

   said last   night   it was trans-lated       allllllllll
F#|-----------------0--------------|-----------------0--------------|
 D|------0--------------0----------|-----0--------------0-----------|
 A|----------5--------------5/7----|--------7---------------7/5-----|
 D|------------0-------------------|----------0---------------------|
 A|--------------0-----------------|------------0-------------------|
 D|--5-----------------------------|--7-----------------------------|

  wrong                                                         and I
F#|-----------------0--------------|-----------------0--------------|
 D|------0--------------0----------|-----0--------------0-----------|
 A|----------0--------------0------|--------0---------------0-------|
 D|------------0-------------------|----------0---------------------|
 A|--------------0-----------------|------------0-------------------|
 D|--0-----------------------------|--0-----------------------------|

   wait        ohhhhh                       [GRAB A PICK]and   I
F#|-----------------0--------------|--------------------------------|
 D|------0--------------0----------|--------------------------------|
 A|----------5--------------5/7----|--------------------------------|
 D|------------0-------------------|--------------------------------|
 A|--------------0-----------------|--------------------------------|
 D|--5-----------------------------|--7-----------------------------|

  wait                                              Flyin' on my 
F#|--3--3---3-3-3-3---3--3---3-3-3-|--3--3---3-3-3-3---3--3---3-3-3-|
 D|--4--4---4-4-4-4---4--4---4-4-4-|--4--4---4-4-4-4---4--4---4-4-4-|
 A|--5--5---5-5-5-5---5--5---5-5-5-|--5--5---5-5-5-5---5--5---5-5-5-|
 D|--0--0---0-0-0-0---0--0---0-0-0-|--0--0---0-0-0-0---0--0---0-0-0-|
 A|--0--0---0-0-0-0---0--0---0-0-0-|--0--0---0-0-0-0---0--0---0-0-0-|
 D|--0--0---0-0-0-0---0--0---0-0-0-|--0--0---0-0-0-0---0--0---0-0-0-|


  own                                 way
F#|--0--0---0-0-0-0---0--0---0-0-0-|--0--0---0-0-0-0---0--0---0-0-0-|
 D|--0--0---0-0-0-0---0--0---0-0-0-|--0--0---0-0-0-0---0--0---0-0-0-|
 A|--5--5---5-5-5-5---5--5---5-5-5-|--7--7---7-7-7-7---7--7---7-7-7-|
 D|--0--0---0-0-0-0---0--0---0-0-0-|--0--0---0-0-0-0---0--0---0-0-0-|
 A|--0--0---0-0-0-0---0--0---0-0-0-|--0--0---0-0-0-0---0--0---0-0-0-|
 D|--5--5---5-5-5-5---5--5---5-5-5-|--7--7---7-7-7-7---7--7---7-7-7-|


     home                                           Flyin' on my  
F#|--3--3---3-3-3-3---3--5---5-5-5-|--3--3---3-3-3-3---3--3---3-3-3-|
 D|--4--4---4-4-4-4---4--4---4-4-4-|--4--4---4-4-4-4---4--4---4-4-4-|
 A|--5--5---5-5-5-5---5--5---5-5-5-|--5--5---5-5-5-5---5--5---5-5-5-|
 D|--0--0---0-0-0-0---0--0---0-0-0-|--0--0---0-0-0-0---0--0---0-0-0-|
 A|--0--0---0-0-0-0---0--0---0-0-0-|--0--0---0-0-0-0---0--0---0-0-0-|
 D|--0--0---0-0-0-0---0--0---0-0-0-|--0--0---0-0-0-0---0--0---0-0-0-|

    own                               way                    
F#|--0--0---0-0-0-0---0--0---0-0-0-|--0--0---0-0-0-0---0--0---0-0-0-|
 D|--0--0---0-0-0-0---0--0---0-0-0-|--0--0---0-0-0-0---0--0---0-0-0-|
 A|--5--5---5-5-5-5---5--5---5-5-5-|--7--7---7-7-7-7---7--7---7-7-7-|
 D|--0--0---0-0-0-0---0--0---0-0-0-|--0--0---0-0-0-0---0--0---0-0-0-|
 A|--0--0---0-0-0-0---0--0---0-0-0-|--0--0---0-0-0-0---0--0---0-0-0-|
 D|--5--5---5-5-5-5---5--5---5-5-5-|--7--7---7-7-7-7---7--7---7-7-7-|

     home
F#|--3--3---3-3-3-3---3--3---3-3-3-|--3--3---3-3-3-3---3--3---3-3-3-|
 D|--4--4---4-4-4-4---4--4---4-4-4-|--4--4---4-4-4-4---4--4---4-4-4-|
 A|--5--5---5-5-5-5---5--5---5-5-5-|--5--5---5-5-5-5---5--5---5-5-5-|
 D|--0--0---0-0-0-0---0--0---0-0-0-|--0--0---0-0-0-0---0--0---0-0-0-|
 A|--0--0---0-0-0-0---0--0---0-0-0-|--0--0---0-0-0-0---0--0---0-0-0-|
 D|--0--0---0-0-0-0---0--0---0-0-0-|--0--0---0-0-0-0---0--0---0-0-0-|


 [Didgeridoo solo.    Why? Because Pierce brothers.  That's why.]
F#|--0--0---0-0-0-0---0--0---0-0-0-|--0--0---0-0-0-0---0--0---0-0-0-|
 D|--0--0---0-0-0-0---0--0---0-0-0-|--0--0---0-0-0-0---0--0---0-0-0-|
 A|--5--5---5-5-5-5---5--5---5-5-5-|--5--5---5-5-5-5---5--5---5-5-5-|
 D|--0--0---0-0-0-0---0--0---0-0-0-|--0--0---0-0-0-0---0--0---0-0-0-|
 A|--0--0---0-0-0-0---0--0---0-0-0-|--0--0---0-0-0-0---0--0---0-0-0-|
 D|--5--5---5-5-5-5---5--5---5-5-5-|--5--5---5-5-5-5---5--5---5-5-5-|

   [More didgeridoo]
F#|--0--0---0-0-0-0---0--0---0-0-0-|--0--0---0-0-0-0---0--0---0-0-0-|
 D|--2h4----4-4-4-2---2h4----4-4-4-|--2h4----4-4-4-2---2h4----4-4-4-|    something like that :)
 A|--0--0---0-0-0-0---0--0---0-0-0-|--0--0---0-0-0-0---0--0---0-0-0-|
 D|--0--0---0-0-0-0---0--0---0-0-0-|--0--0---0-0-0-0---0--0---0-0-0-|
 A|--0--0---0-0-0-0---0--0---0-0-0-|--0--0---0-0-0-0---0--0---0-0-0-|
 D|--0--0---0-0-0-0---0--0---0-0-0-|--0--0---0-0-0-0---0--0---0-0-0-|

   ["How about an 8 bar didgeridoo solo?"  - Australian Jesus]
F#|--0--0---0-0-0-0---0--0---0-0-0-|--0--0---0-0-0-0---0--0---0-0-0-|
 D|--0--0---0-0-0-0---0--0---0-0-0-|--0--0---0-0-0-0---0--0---0-0-0-|
 A|--5--5---5-5-5-5---5--5---5-5-5-|--5--5---5-5-5-5---5--5---5-5-5-|
 D|--0--0---0-0-0-0---0--0---0-0-0-|--0--0---0-0-0-0---0--0---0-0-0-|
 A|--0--0---0-0-0-0---0--0---0-0-0-|--0--0---0-0-0-0---0--0---0-0-0-|
 D|--5--5---5-5-5-5---5--5---5-5-5-|--5--5---5-5-5-5---5--5---5-5-5-|


 [Still a man with lots of hair playing a tree]   Ohhhhh I haven't 
F#|--3--3---3-3-3-3---3--3---3-3-3-|--3--3---3-3-3-3---3--3---3-3-3-|
 D|--4--4---4-4-4-4---4--4---4-4-4-|--4--4---4-4-4-4---4--4---4-4-4-|
 A|--5--5---5-5-5-5---5--5---5-5-5-|--5--5---5-5-5-5---5--5---5-5-5-|
 D|--0--0---0-0-0-0---0--0---0-0-0-|--0--0---0-0-0-0---0--0---0-0-0-|
 A|--0--0---0-0-0-0---0--0---0-0-0-|--0--0---0-0-0-0---0--0---0-0-0-|
 D|--0--0---0-0-0-0---0--0---0-0-0-|--0--0---0-0-0-0---0--0---0-0-0-|


     Been here                                        for    a 
F#|--0--0---0-0-0-0---0--0---0-0-0-|--0--0---0-0-0-0---0--0---0-0-0-|
 D|--0--0---0-0-0-0---0--0---0-0-0-|--0--0---0-0-0-0---0--0---0-0-0-|
 A|--5--5---5-5-5-5---5--5---5-5-5-|--7--7---7-7-7-7---7--7---7-7-7-|
 D|--0--0---0-0-0-0---0--0---0-0-0-|--0--0---0-0-0-0---0--0---0-0-0-|
 A|--0--0---0-0-0-0---0--0---0-0-0-|--0--0---0-0-0-0---0--0---0-0-0-|
 D|--5--5---5-5-5-5---5--5---5-5-5-|--7--7---7-7-7-7---7--7---7-7-7-|


     while                                           See    your  
F#|--3--3---3-3-3-3---3--5---5-5-5-|--3--3---3-3-3-3---3--3---3-3-3-|
 D|--4--4---4-4-4-4---4--4---4-4-4-|--4--4---4-4-4-4---4--4---4-4-4-|
 A|--5--5---5-5-5-5---5--5---5-5-5-|--5--5---5-5-5-5---5--5---5-5-5-|
 D|--0--0---0-0-0-0---0--0---0-0-0-|--0--0---0-0-0-0---0--0---0-0-0-|
 A|--0--0---0-0-0-0---0--0---0-0-0-|--0--0---0-0-0-0---0--0---0-0-0-|
 D|--0--0---0-0-0-0---0--0---0-0-0-|--0--0---0-0-0-0---0--0---0-0-0-|

    face      light up   as   the   coal     came      down     the                
F#|--0--0---0-0-0-0---0--0---0-0-0-|--0--0---0-0-0-0---0--0---0-0-0-|
 D|--0--0---0-0-0-0---0--0---0-0-0-|--0--0---0-0-0-0---0--0---0-0-0-|
 A|--5--5---5-5-5-5---5--5---5-5-5-|--7--7---7-7-7-7---7--7---7-7-7-|
 D|--0--0---0-0-0-0---0--0---0-0-0-|--0--0---0-0-0-0---0--0---0-0-0-|
 A|--0--0---0-0-0-0---0--0---0-0-0-|--0--0---0-0-0-0---0--0---0-0-0-|
 D|--5--5---5-5-5-5---5--5---5-5-5-|--7--7---7-7-7-7---7--7---7-7-7-|

     line                                             the conver...
F#|--3--3---3-3-3-3---3--3---3-3-3-|--3--3---3-3-3-3---3--3---3-3-3-|
 D|--4--4---4-4-4-4---4--4---4-4-4-|--4--4---4-4-4-4---4--4---4-4-4-|
 A|--5--5---5-5-5-5---5--5---5-5-5-|--5--5---5-5-5-5---5--5---5-5-5-|
 D|--0--0---0-0-0-0---0--0---0-0-0-|--0--0---0-0-0-0---0--0---0-0-0-|
 A|--0--0---0-0-0-0---0--0---0-0-0-|--0--0---0-0-0-0---0--0---0-0-0-|
 D|--0--0---0-0-0-0---0--0---0-0-0-|--0--0---0-0-0-0---0--0---0-0-0-|

...sation   took        new        territory                    to...
F#|--0--0---0-0-0-0---0--0---0-0-0-|--0--0---0-0-0-0---0--0---0-0-0-|
 D|--0--0---0-0-0-0---0--0---0-0-0-|--0--0---0-0-0-0---0--0---0-0-0-|
 A|--5--5---5-5-5-5---5--5---5-5-5-|--7--7---7-7-7-7---7--7---7-7-7-|
 D|--0--0---0-0-0-0---0--0---0-0-0-|--0--0---0-0-0-0---0--0---0-0-0-|
 A|--0--0---0-0-0-0---0--0---0-0-0-|--0--0---0-0-0-0---0--0---0-0-0-|
 D|--5--5---5-5-5-5---5--5---5-5-5-|--7--7---7-7-7-7---7--7---7-7-7-|


     night                                                    and I  
F#|--3--3---3-3-3-3---3--5---5-5-5-|--3--3---3-3-3-3---3--3---3-3-3-|
 D|--4--4---4-4-4-4---4--4---4-4-4-|--4--4---4-4-4-4---4--4---4-4-4-|
 A|--5--5---5-5-5-5---5--5---5-5-5-|--5--5---5-5-5-5---5--5---5-5-5-|
 D|--0--0---0-0-0-0---0--0---0-0-0-|--0--0---0-0-0-0---0--0---0-0-0-|
 A|--0--0---0-0-0-0---0--0---0-0-0-|--0--0---0-0-0-0---0--0---0-0-0-|
 D|--0--0---0-0-0-0---0--0---0-0-0-|--0--0---0-0-0-0---0--0---0-0-0-|

    wait                                                      and I                    
F#|--0--0---0-0-0-0---0--0---0-0-0-|--0--0---0-0-0-0---0--0---0-0-0-|
 D|--0--0---0-0-0-0---0--0---0-0-0-|--0--0---0-0-0-0---0--0---0-0-0-|
 A|--5--5---5-5-5-5---5--5---5-5-5-|--5--5---5-5-5-5---5--5---5-5-5-|
 D|--0--0---0-0-0-0---0--0---0-0-0-|--0--0---0-0-0-0---0--0---0-0-0-|
 A|--0--0---0-0-0-0---0--0---0-0-0-|--0--0---0-0-0-0---0--0---0-0-0-|
 D|--5--5---5-5-5-5---5--5---5-5-5-|--5--5---5-5-5-5---5--5---5-5-5-|

     wait                                                    and I
F#|--3--3---3-3-3-3---3--3---3-3-3-|--3--3---3-3-3-3---3--3---3-3-3-|
 D|--4--4---4-4-4-4--4h5-4---4-4-4-|--4--4---4-4-4-4--4h5-4---4-4-4-|
 A|--5--5---5-5-5-5---5--5---5-5-5-|--5--5---5-5-5-5---5--5---5-5-5-|
 D|--0--0---0-0-0-0---0--0---0-0-0-|--0--0---0-0-0-0---0--0---0-0-0-|
 A|--0--0---0-0-0-0---0--0---0-0-0-|--0--0---0-0-0-0---0--0---0-0-0-|
 D|--0--0---0-0-0-0---0--0---0-0-0-|--0--0---0-0-0-0---0--0---0-0-0-|


    wait                                                      and I                    
F#|--0--0---0-0-0-0---0--0---0-0-0-|--0--0--------------------------|
 D|--0--0---0-0-0-0---0--0---0-0-0-|--0--0--------------------------|
 A|--5--5---5-5-5-5---5--5---5-5-5-|--5--5--------------------------|
 D|--0--0---0-0-0-0---0--0---0-0-0-|--0--0--------------------------|
 A|--0--0---0-0-0-0---0--0---0-0-0-|--0--0--------------------------|
 D|--5--5---5-5-5-5---5--5---5-5-5-|--5--5--------------------------|

     waaaaaaaaaaaaaaaaaaaaaaaaaaaaaaaaaaaaaaaaaaaaaaaaaaaaaaaaa....
F#|--3--3---3-3-3-3---3--3---3-3-3-|--3--3---3-3-3-3---3--3---3-3-3-|
 D|--4--4---4-4-4-4---4--4---4-4-4-|--4--4---4-4-4-4---4--4---4-4-4-|
 A|--5--5---5-5-5-5---5--5---5-5-5-|--5--5---5-5-5-5---5--5---5-5-5-|
 D|--0--0---0-0-0-0---0--0---0-0-0-|--0--0---0-0-0-0---0--0---0-0-0-|
 A|--0--0---0-0-0-0---0--0---0-0-0-|--0--0---0-0-0-0---0--0---0-0-0-|
 D|--0--0---0-0-0-0---0--0---0-0-0-|--0--0---0-0-0-0---0--0---0-0-0-|


.......aaaaaaaaaaaaaaaaaaaaaaaaaaaaaaaaaaaaait       I'm flying on my 
F#|--3--3---3-3-3-3---3--3---3-3-3-|--3--3---3-3-3-3---3--3---3-3-3-|
 D|--4--4---4-4-4-4---4--4---4-4-4-|--4--4---4-4-4-4---4--4---4-4-4-|
 A|--5--5---5-5-5-5---5--5---5-5-5-|--5--5---5-5-5-5---5--5---5-5-5-|
 D|--0--0---0-0-0-0---0--0---0-0-0-|--0--0---0-0-0-0---0--0---0-0-0-|
 A|--0--0---0-0-0-0---0--0---0-0-0-|--0--0---0-0-0-0---0--0---0-0-0-|
 D|--0--0---0-0-0-0---0--0---0-0-0-|--0--0---0-0-0-0---0--0---0-0-0-|


  own                               way                    
F#|--0--0---0-0-0-0---0--0---0-0-0-|--0--0---0-0-0-0---0--0---0-0-0-|
 D|--0--0---0-0-0-0---0--0---0-0-0-|--0--0---0-0-0-0---0--0---0-0-0-|
 A|--5--5---5-5-5-5---5--5---5-5-5-|--7--7---7-7-7-7---7--7---7-7-7-|
 D|--0--0---0-0-0-0---0--0---0-0-0-|--0--0---0-0-0-0---0--0---0-0-0-|
 A|--0--0---0-0-0-0---0--0---0-0-0-|--0--0---0-0-0-0---0--0---0-0-0-|
 D|--5--5---5-5-5-5---5--5---5-5-5-|--7--7---7-7-7-7---7--7---7-7-7-|

     home                                           I'm flying on my
F#|--3--3---3-3-3-3---3--3---3-3-3-|--3--3---3-3-3-3---3--3---3-3-3-|
 D|--4--4---4-4-4-4---4--4---4-4-4-|--4--4---4-4-4-4---4--4---4-4-4-|
 A|--5--5---5-5-5-5---5--5---5-5-5-|--5--5---5-5-5-5---5--5---5-5-5-|
 D|--0--0---0-0-0-0---0--0---0-0-0-|--0--0---0-0-0-0---0--0---0-0-0-|
 A|--0--0---0-0-0-0---0--0---0-0-0-|--0--0---0-0-0-0---0--0---0-0-0-|
 D|--0--0---0-0-0-0---0--0---0-0-0-|--0--0---0-0-0-0---0--0---0-0-0-|


  own                               way                    
F#|--0--0---0-0-0-0---0--0---0-0-0-|--0--0---0-0-0-0---0--0---0-0-0-|
 D|--0--0---0-0-0-0---0--0---0-0-0-|--0--0---0-0-0-0---0--0---0-0-0-|
 A|--5--5---5-5-5-5---5--5---5-5-5-|--7--7---7-7-7-7---7--7---7-7-7-|
 D|--0--0---0-0-0-0---0--0---0-0-0-|--0--0---0-0-0-0---0--0---0-0-0-|
 A|--0--0---0-0-0-0---0--0---0-0-0-|--0--0---0-0-0-0---0--0---0-0-0-|
 D|--5--5---5-5-5-5---5--5---5-5-5-|--7--7---7-7-7-7---7--7---7-7-7-|

     home                                           I'm flying on my
F#|--3--3---3-3-3-3---3--3---3-3-3-|--3--3---3-3-3-3---3--3---3-3-3-|
 D|--4--4---4-4-4-4---4--4---4-4-4-|--4--4---4-4-4-4---4--4---4-4-4-|
 A|--5--5---5-5-5-5---5--5---5-5-5-|--5--5---5-5-5-5---5--5---5-5-5-|
 D|--0--0---0-0-0-0---0--0---0-0-0-|--0--0---0-0-0-0---0--0---0-0-0-|
 A|--0--0---0-0-0-0---0--0---0-0-0-|--0--0---0-0-0-0---0--0---0-0-0-|
 D|--0--0---0-0-0-0---0--0---0-0-0-|--0--0---0-0-0-0---0--0---0-0-0-|

     own                                                 flying on my
F#|--0---0-0-0-0---0-0-0-0---0--0--|--0---0-0-0-0---0-0-0-0---0--0--|
 D|--2h4-4-4-4-2h4-4-4-4-2h4-4--4--|--2h4-4-4-4-2h4-4-4-4-2h4-4--4--|     This rhythm is not even close to  
 A|--0---0-0-0-0---0-0-0-0---0--0--|--0---0-0-0-0---0-0-0-0---0--0--|     correct, just have a listen and it
 D|--0---0-0-0-0---0-0-0-0---0--0--|--0---0-0-0-0---0-0-0-0---0--0--|     should make sense.  
 A|--2---2-2-2-2---2-2-2-2---2--2--|--2---2-2-2-2---2-2-2-2---2--2--|     
 D|--0---0-0-0-0---0-0-0-0---0--0--|--0---0-0-0-0---0-0-0-0---0--0--|     

    own                                              I'm flying on my
F#|--0--0---0-0-0-0---0--0---0-0-0-|--0--0---0-0-0-0---0--0---0-0-0-|
 D|--2--2---2-2-2-2---2--2---2-2-2-|--2--2---2-2-2-2---2--2---2-2-2-|
 A|--0--0---0-0-0-0---0--0---0-0-0-|--0--0---0-0-0-0---0--0---0-0-0-|
 D|--0--0---0-0-0-0---0--0---0-0-0-|--0--0---0-0-0-0---0--0---0-0-0-|
 A|--0--0---0-0-0-0---0--0---0-0-0-|--0--0---0-0-0-0---0--0---0-0-0-|
 D|--4--4---4-4-4-4---4--4---4-4-4-|--4--4---4-4-4-4---4--4---4-4-4-|

   own
F#|--0--0---0-0-0-0---0--0---0-0-0-|--0--0---0-0-0-0---0--0---0-0-0-|
 D|--0--0---0-0-0-0---0--0---0-0-0-|--0--0---0-0-0-0---0--0---0-0-0-|
 A|--5--5---5-5-5-5---5--5---5-5-5-|--5--5---5-5-5-5---5--5---5-5-5-|
 D|--0--0---0-0-0-0---0--0---0-0-0-|--0--0---0-0-0-0---0--0---0-0-0-|
 A|--0--0---0-0-0-0---0--0---0-0-0-|--0--0---0-0-0-0---0--0---0-0-0-|
 D|--5--5---5-5-5-5---5--5---5-5-5-|--5--5---5-5-5-5---5--5---5-5-5-|

    way
F#|--0--0---0-0-0-0---0--0---0-0-0-|--0--0---0-0-0-0---0--0---0-0-0-|
 D|--0--0---0-0-0-0---0--0---0-0-0-|--0--0---0-0-0-0---0--0---0-0-0-|
 A|--5--5---5-5-5-5---5--5---5-5-5-|--5--5---5-5-5-5---5--5---5-5-5-|
 D|--0--0---0-0-0-0---0--0---0-0-0-|--0--0---0-0-0-0---0--0---0-0-0-|
 A|--0--0---0-0-0-0---0--0---0-0-0-|--0--0---0-0-0-0---0--0---0-0-0-|
 D|--5--5---5-5-5-5---5--5---5-5-5-|--5--5---5-5-5-5---5--5---5-5-5-|
  
   Home                               
F#|--3--3---3-3-3-3---3--3---3-3-3-|--3--3---3-3-3-3---3--3---3-3-3-|   --
 D|--4--4---4-4-4-4---4--4---4-4-4-|--4--4---4-4-4-4---4--4---4-4-4-|     \
 A|--5--5---5-5-5-5---5--5---5-5-5-|--5--5---5-5-5-5---5--5---5-5-5-|      \
 D|--0--0---0-0-0-0---0--0---0-0-0-|--0--0---0-0-0-0---0--0---0-0-0-|       \
 A|--0--0---0-0-0-0---0--0---0-0-0-|--0--0---0-0-0-0---0--0---0-0-0-|        |     
 D|--0--0---0-0-0-0---0--0---0-0-0-|--0--0---0-0-0-0---0--0---0-0-0-|        |
                                                                              \    [Insert crazy hammering    
                                               ahhh nah nah nah nah           /     on F# and D strings here]
F#|--3--3---3-3-3-3---3--3---3-3-3-|--3--3---3-3-3-3---3--3---3-3-3-|        |
 D|--4--4---4-4-4-4---4--4---4-4-4-|--4--4---4-4-4-4---4--4---4-4-4-|        |
 A|--5--5---5-5-5-5---5--5---5-5-5-|--5--5---5-5-5-5---5--5---5-5-5-|       /
 D|--0--0---0-0-0-0---0--0---0-0-0-|--0--0---0-0-0-0---0--0---0-0-0-|      /
 A|--0--0---0-0-0-0---0--0---0-0-0-|--0--0---0-0-0-0---0--0---0-0-0-|     /
 D|--0--0---0-0-0-0---0--0---0-0-0-|--0--0---0-0-0-0---0--0---0-0-0-|   --

    Hoooooooooooooooo              ooooohhhhh  ahhh nah nah nah nah
F#|--0--0---0-0-0-0---0--0---0-0-0-|--0--0---0-0-0-0---0--0---0-0-0-|
 D|--0--0---0-0-0-0---0--0---0-0-0-|--0--0---0-0-0-0---0--0---0-0-0-|
 A|--5--5---5-5-5-5---5--5---5-5-5-|--7--7---7-7-7-7---7--7---7-7-7-|
 D|--0--0---0-0-0-0---0--0---0-0-0-|--0--0---0-0-0-0---0--0---0-0-0-|
 A|--0--0---0-0-0-0---0--0---0-0-0-|--0--0---0-0-0-0---0--0---0-0-0-|
 D|--5--5---5-5-5-5---5--5---5-5-5-|--7--7---7-7-7-7---7--7---7-7-7-|


     Hey!                                       ahhh nah nah nah nah
F#|--3--3---3-3-3-3---3--5---5-5-5-|--3--3---3-3-3-3---3--3---3-3-3-|
 D|--4--4---4-4-4-4---4--4---4-4-4-|--4--4---4-4-4-4---4--4---4-4-4-|
 A|--5--5---5-5-5-5---5--5---5-5-5-|--5--5---5-5-5-5---5--5---5-5-5-|
 D|--0--0---0-0-0-0---0--0---0-0-0-|--0--0---0-0-0-0---0--0---0-0-0-|
 A|--0--0---0-0-0-0---0--0---0-0-0-|--0--0---0-0-0-0---0--0---0-0-0-|
 D|--0--0---0-0-0-0---0--0---0-0-0-|--0--0---0-0-0-0---0--0---0-0-0-|
  
    Hoooooooooooooooo              ooooohhhhh  ahhh nah nah nah nah
F#|--0--0---0-0-0-0---0--0---0-0-0-|--0--0---0-0-0-0---0--0---0-0-0-|
 D|--0--0---0-0-0-0---0--0---0-0-0-|--0--0---0-0-0-0---0--0---0-0-0-|
 A|--5--5---5-5-5-5---5--5---5-5-5-|--7--7---7-7-7-7---7--7---7-7-7-|
 D|--0--0---0-0-0-0---0--0---0-0-0-|--0--0---0-0-0-0---0--0---0-0-0-|
 A|--0--0---0-0-0-0---0--0---0-0-0-|--0--0---0-0-0-0---0--0---0-0-0-|
 D|--5--5---5-5-5-5---5--5---5-5-5-|--7--7---7-7-7-7---7--7---7-7-7-|


     Hey!                                       ahhh nah nah nah nah
F#|--3--3---3-3-3-3---3--5---5-5-5-|--3--3---3-3-3-3---3--3---3-3-3-|
 D|--4--4---4-4-4-4---4--4---4-4-4-|--4--4---4-4-4-4---4--4---4-4-4-|
 A|--5--5---5-5-5-5---5--5---5-5-5-|--5--5---5-5-5-5---5--5---5-5-5-|
 D|--0--0---0-0-0-0---0--0---0-0-0-|--0--0---0-0-0-0---0--0---0-0-0-|
 A|--0--0---0-0-0-0---0--0---0-0-0-|--0--0---0-0-0-0---0--0---0-0-0-|
 D|--0--0---0-0-0-0---0--0---0-0-0-|--0--0---0-0-0-0---0--0---0-0-0-|

    Hoooooooooooooooo              ooooohhhhh  ahhh nah nah nah nah
F#|--0--0---0-0-0-0---0--0---0-0-0-|--0--0---0-0-0-0---0--0---0-0-0-|
 D|--0--0---0-0-0-0---0--0---0-0-0-|--0--0---0-0-0-0---0--0---0-0-0-|
 A|--5--5---5-5-5-5---5--5---5-5-5-|--7--7---7-7-7-7---7--7---7-7-7-|
 D|--0--0---0-0-0-0---0--0---0-0-0-|--0--0---0-0-0-0---0--0---0-0-0-|
 A|--0--0---0-0-0-0---0--0---0-0-0-|--0--0---0-0-0-0---0--0---0-0-0-|
 D|--5--5---5-5-5-5---5--5---5-5-5-|--7--7---7-7-7-7---7--7---7-7-7-|


     Hey!                                       ahhh nah nah nah nah
F#|--3--3---3-3-3-3---3--5---5-5-5-|--3--3---3-3-3-3---3--3---3-3-3-|
 D|--4--4---4-4-4-4---4--4---4-4-4-|--4--4---4-4-4-4---4--4---4-4-4-|
 A|--5--5---5-5-5-5---5--5---5-5-5-|--5--5---5-5-5-5---5--5---5-5-5-|
 D|--0--0---0-0-0-0---0--0---0-0-0-|--0--0---0-0-0-0---0--0---0-0-0-|
 A|--0--0---0-0-0-0---0--0---0-0-0-|--0--0---0-0-0-0---0--0---0-0-0-|
 D|--0--0---0-0-0-0---0--0---0-0-0-|--0--0---0-0-0-0---0--0---0-0-0-|
  
    Hoooooooooooooooo              ooooohhhhh  ahhh nah nah nah nah
F#|--0--0---0-0-0-0---0--0---0-0-0-|--0-----------------------------|
 D|--0--0---0-0-0-0---0--0---0-0-0-|--0-----------------------------|
 A|--5--5---5-5-5-5---5--5---5-5-5-|--7-----------------------------|
 D|--0--0---0-0-0-0---0--0---0-0-0-|--0-----------------------------|
 A|--0--0---0-0-0-0---0--0---0-0-0-|--0-----------------------------|
 D|--5--5---5-5-5-5---5--5---5-5-5-|--7-----------------------------|


     Hey!                                      
F#|--3-------3----5----3--0----------------------|--0--||
 D|--4-----------------------2--0----------------|--0--||
 A|--5-------------------------------2----4----5-|--0--||
 D|--0-------------------------------------------|--0--||
 A|--0-------------------------------------------|--0--||
 D|--0-------------------------------------------|--0--||



Now go stomp your feet, grow your hair, and learn to play didgeridoo!

Peace 
Добавлено: 17.06.2016
Вам также может быть интересно:
Другие материалы по этой песне:
  • Аккорды и текст

Страница создана 17.06.2016
http://primanota.ru/pierce-brothers/flying-home-live-chords.htm
Привет, Гость.
Предлагаем пройти революционный курс по гитаре.
Подарок от PrimaNota.Ru, забирай!