PrimaNota.ru - самый крупный в мире бесплатный архив песенных текстов, аккордов, табулатур и нот


Piebald - American Hearts - таба, бас-таба, видео

Регистрация Запомнить меня
Войти через:  Facebook Google Twitter Vk Yandex Mail.ru

Piebald - American Hearts - таба, бас-таба, видео

Печатать
Просмотров: 106
----------------------------------------------------------------------------
                             American Hearts 
                                Piebald

----------------------------------------------------------------------------
Tabbed by: Tim Kallas


Tuning: reg

main riff
e|------------------------------|  
B|------------------------------|  verse bass part
G|------------------------------|-------------------------------|
D|--9-----9-----9-----6--6/7----|-------------------------------|
A|--7-----7-----7---------------|----------4--------------------|
E|--5-----0-----7-----4--4/5----|--5---0--------4--4/5----------|

  verse 2
e|--4---4-------16----------------2----2-----14----------------------|
B|--5---4-----------16------------3----2---------14------------------|
G|--4---4-------------------------2----2-----------------------------|
D|----------------------14---------------------------12--------------|
A|-------------------------------------------------------------------|
E|-------------------------------------------------------------------|


Bridge
 Gtr 1
e|------------------------------------------------------------|
B|-------------------------------------------5p4--------------|
G|-----------------------------------------------6p4----------|
D|--9-----9---------2h4--/6~-----9------6------------6~-------|
A|--7-----7----2h4---------------7----------------------------|
E|--5-----0----------------------7------4---------------------|

 Gtr 2
e|------------------------------------------------------------|
B|-------------------------------------------9p7--------------|
G|-----------------------------------------------9p7--9~------|
D|--9-----9---------5h7--/9~-----9------6---------------------|
A|--7-----7----5h7---------------7----------------------------|
E|--5-----0----------------------7------4---------------------|

Interlude (all hammers and pull-offs)
e|--0-2-0-4-0-5-0-7-0-5-0-4------------------------------------------|
B|------------------------------0-5-0-7-0-9-0-10-0-9-0-7-------------|
G|-------------------------------------------------------------------|
D|-------------------------------------------------------------------|
A|-------------------------------------------------------------------|
E|-------------------------------------------------------------------|

Ending
e|-----------------------------------------------------------------------|
B|-----------------------------------------------------------------------|
G|-----------------------------------------------------------------------|
D|--6-6-6-7-7-7---2------------------------------------------------------|
A|----------------2------------------------------------------------------|
E|--4-4-4-5-5-5---0------------------------------------------------------|



************************************

| /   slide up
| \   slide down
| h   hammer-on
| p   pull-off
| ~   vibrato
| +   harmonic
| x   Mute note
| b   Bend
| pb  Pre-bend
| br  Bend release
| pbr Pre-bend release
| brb Bend release bend

************************************
Добавлено: 29.03.2012
Другие материалы по этой песне:
  • Аккорды и текст

Страница создана 29.03.2012
http://primanota.ru/piebald/american-hearts-chords.htm
Привет, Гость.
Предлагаем пройти революционный курс по гитаре.
Подарок от PrimaNota.Ru, забирай!