PrimaNota.ru - самый крупный в мире бесплатный архив песенных текстов, аккордов, табулатур и нот


Pidzama Porno - Marchef W Butonierce - аккорды и текст, видео

Регистрация Запомнить меня
Войти через:  Facebook Google Twitter Vk Yandex Mail.ru

Pidzama Porno - Marchef W Butonierce - аккорды и текст, видео

Печатать
Просмотров: 55
Marchef W Butonierce
Pidzama Porno
Pidżama porno - Marchef w butonierce
Tabbed by: damienos

Tuning: Standard

[intro]
   F#5   F#5    F#5    C#5
e|---------------------------|
B|---------------------------|
G|---6-6-7-6---------4--4----|
D|-4---------7--4--7---6-6---|
A|---------------------------|
E|---------------------------|
   F#5   F#5    F#5    C#5
e|---------------------------|
B|---------------------------|
G|---6-6-7-6---------4-------|
D|-4---------7--4--7---6-----|
A|---------------------------|
E|---------------------------|
   F#5   F#5    F#5    C#5
e|---------------------------|
B|---------------------------|
G|---6-6-7-6---------4--4----|
D|-4---------7--4--7---6-6---|
A|---------------------------|
E|---------------------------|
   F#5   F#5    F#5    C#5
e|---------------------------|
B|---------------------------|
G|---6-6-7-6---------4-------|
D|-4---------7--4--7---6-----|
A|---------------------------|
E|---------------------------|

[verse 1]
F#5              F#5 
Wiem, że nie spotkamy się w niebie
    F#5             C#5
Czy można to nazwać pechem
F#5         F#5 
Com ja Poznaniowi uczynił
F#5          C#5
Pytam się z uśmiechem
           F#5    F#5 
Pstrykam w oko prorokom
F#5         C#5
Petem gaszę żale
      F#5              F#5 
Ponoć wiesz już o mnie wszystko
F#5            C#5
Nie znasz mnie wcale

[chorus]
E5           B5        E5             B5
Masz tak jak ja w tylu miejscach poklejone serce
  E5        B5
Aksamit i Dynamit
E5            B5
Marchef w Butonierce
      C#5
Nasze serca mylą ich radary...

[intro]
   F#5   F#5    F#5    C#5
e|---------------------------|
B|---------------------------|
G|---6-6-7-6---------4--4----|
D|-4---------7--4--7---6-6---|
A|---------------------------|
E|---------------------------|
   F#5   F#5    F#5    C#5
e|---------------------------|
B|---------------------------|
G|---6-6-7-6---------4-------|
D|-4---------7--4--7---6-----|
A|---------------------------|
E|---------------------------|

[verse 2]
F#5        F#5            F#5         C#5 
Żyję tylko po to by napierdalać warszawiaków
F#5        F#5           F#5         C#5 
Każdy z Warszawy jest na głowie swej kulawy
     F#5           F#5        F#5      C#5 
A najbardziej komercyjny jest pies policyjny
F#5                F#5 
Słynni bardowie są tylko w Krakowie
F#5         C#5 
Kawiarniana spowiedź
  F#5           F#5          F#5        C#5 
Popowy jest też papież kiedy błogosławi macierz
     F#5                   F#5          F#5        C#5 
A najdłużej zawsze jest tu Ten Kto Ma Z Tyłu Sceny Tlen Młotku

[chorus]
E5           B5        E5             B5
Masz tak jak ja w tylu miejscach poklejone serce
  E5        B5
Aksamit i Dynamit
E5            B5
Marchef w Butonierce
      C#5
Nasze serca mylą ich radary...

[bridge]
F#5 E5 C#5
F#5            E5              C#5
Złam tę zasadę Złam tę zasadę, Złam tę zasadę, Złam tę zasadę
F#5            E5 
Złam tę zasadę Złam tę zasadę,
C#5
    Złam tę zasadę
F#5          E5        C#5
Złamie to tylko pijane echo 
C#5
Rozbij echo na 
F#5 E5  F#5 E5 F#5 E5 F#5 E5
  Atomy, atomy, atomy, atomy
D5          
Atomy, atomy
C#5         F#5
   NA ATOMY!!!

[intro]
   F#5   F#5    F#5    C#5
e|---------------------------|
B|---------------------------|
G|---6-6-7-6---------4--4----|
D|-4---------7--4--7---6-6---|
A|---------------------------|
E|---------------------------|
   F#5   F#5    F#5    C#5
e|---------------------------|
B|---------------------------|
G|---6-6-7-6---------4-------|
D|-4---------7--4--7---6-----|
A|---------------------------|
E|---------------------------|
   F#5   F#5    F#5    C#5
e|---------------------------|
B|---------------------------|
G|---6-6-7-6---------4--4----|
D|-4---------7--4--7---6-6---|
A|---------------------------|
E|---------------------------|
   F#5   F#5    F#5    C#5
e|---------------------------|
B|---------------------------|
G|---6-6-7-6---------4-------|
D|-4---------7--4--7---6-----|
A|---------------------------|
E|---------------------------|

[verse 3]
F#5         F#5
Wolny naród Ciemny naród
F#5        C#5 
Świńska koalicja
F#5              F#5
Bruk i brukowce, banki, slumsy
F#5    C#5 
My i policja
       F#5        F#5
Jest wysokie bezrobocie
F#5          C#5 
Niskie są wieżowce
F#5         F#5
Sól z ziemi marnej
       F#5           C#5 
Czarne owce z miasta Manowce
C#5

[verse 4]
      F#5        F#5
W tym kraju są zasady
    F#5             C#5
Ten kraj ma to w zwyczaju
F#5          F#5                  F#5        C#5
Równo ścinać wszystkie głowy wystające zza połowy
      F#5     F#5
Mam fatalne maniery
    F#5          C#5
Koszmarne mam zwyczaje
     F#5              F#5
Lecz kiedy grają tego kraju hymn
       F#5        C#5
Ciągle jeszcze mi staje

[chorus]
E5           B5        E5             B5
Masz tak jak ja w tylu miejscach poklejone serce
  E5        B5
Aksamit i Dynamit
E5            B5
Marchef w Butonierce
      C#5
Nasze serca mylą ich radary...

[bridge]
F#5 E5 C#5
F#5            E5              C#5
Złam tę zasadę Złam tę zasadę, Złam tę zasadę, Złam tę zasadę
F#5            E5 
Złam tę zasadę Złam tę zasadę,
C#5
    Złam tę zasadę
F#5          E5        C#5
Złamie to tylko pijane echo 
C#5
Rozbij echo na 
F#5 E5  F#5 E5 F#5 E5 F#5 E5
  Atomy, atomy, atomy, atomy
D5          
Atomy, atomy
C#5         F#5
   NA ATOMY!!!

[bridge]
F#5 E5 C#5
F#5            E5              C#5
Złam tę zasadę Złam tę zasadę, Złam tę zasadę, Złam tę zasadę
F#5            E5 
Złam tę zasadę Złam tę zasadę,
C#5
    Złam tę zasadę
F#5          E5        C#5
Złamie to tylko pijane echo 
C#5
Rozbij echo na 
F#5 E5  F#5 E5 F#5 E5 F#5 E5
  Atomy, atomy, atomy, atomy
D5          
Atomy, atomy
C#5         F#5
   NA ATOMY!!!

enjoy!
Добавлено: 24.05.2016
Другие материалы по этой песне:
  • Аккорды и текст

Страница создана 24.05.2016
http://primanota.ru/pidzama-porno/marchef-w-butonierce-chords.htm
Привет, Гость.
Предлагаем пройти революционный курс по гитаре.
Подарок от PrimaNota.Ru, забирай!