PrimaNota.ru - самый крупный в мире бесплатный архив песенных текстов, аккордов, табулатур и нот


Pidzama Porno - Koszmarów 4 Pary - аккорды и текст, видео

Регистрация Запомнить меня
Войти через:  Facebook Google Twitter Vk Yandex Mail.ru

Pidzama Porno - Koszmarów 4 Pary - аккорды и текст, видео

Печатать
Просмотров: 78
Уроки эстрадного вокала в Санкт-Петербурге
Koszmarów 4 Pary
Pidzama Porno
Pidżama porno - Koszmarów 4 pary
Tabbed by: damienos

Tuning: Standard

[chorus]
F#m       F#m
Koszmary, koszmary
F#m       Bm
Koszmarów 4 pary
F#m       F#m
Koszmary, koszmary
F#m       Bm
Koszmarów 4 pary
F#m       F#m
Koszmary, koszmary
F#m       Bm
Koszmarów 4 pary
F#m       F#m
Koszmary, koszmary
F#m       Bm
Koszmarów 4 pary

[intro]
    F#m F#m F#m Bm
e|-----------------------|
B|-----------------------|
G|----4s6-4-6------------|
D|-------------4-6s7--6--|
A|-----------------------|
E|-----------------------|
   F#m  F#m F#m  Bm
e|-----------------------|
B|-----------------------|
G|----4s6-4-6------4-----|
D|-4-----------6-7---6---|
A|-----------------------|
E|-----------------------|
   F#m  F#m F#m  Bm
e|-----------------------|
B|-----------------------|
G|----4s6-4-6------------|
D|-4-----------4-6s7--6--|
A|-----------------------|
E|-----------------------|
   F#m  F#m F#m  Bm
e|-----------------------|
B|-----------------------|
G|----4s6-4-6------4-----|
D|-4-----------6-7---6---|
A|-----------------------|
E|-----------------------|

[verse 1]
C#
Pierwsza para nim stopnieją śniegi
F#m
Pierwej niż przebiśniegi
A
Z pól popiołów dwa feniksy
C#
Jeźdźcy Apokalipsy
F#m
Niedobrą wieść przynoszą
A
Razem z poranną rosą
E            F#m       Bm  F#m
Ludziom co o lepsze proszą
E            F#m    Bm C#
Ludziom co o lepsze proszą

[interlude]
F#m F#m F#m Bm
F#m F#m F#m Bm
F#m F#m F#m Bm
F#m F#m F#m Bm

[verse 2]
C#
Druga para: śmierć i walka
F#m
Suki o pancernych karkach
A
A na wojnie ze smokiem
C#
Rycerzyki pięknookie
F#m
Ukłoniły się nabojom
A
Nie potrząsają zbroją
E          F#m       Bm  F#m
Teraz jako krzyże stoją
  E          F#m    Bm C#
A teraz jako krzyże stoją
C#

[chorus]
F#m       F#m
Koszmary, koszmary
F#m       Bm
Koszmarów 4 pary
F#m       F#m
Koszmary, koszmary
F#m       Bm
Koszmarów 4 pary
F#m       F#m
Koszmary, koszmary
F#m       Bm
Koszmarów 4 pary
F#m       F#m
Koszmary, koszmary
F#m       Bm
Koszmarów 4 pary

[verse 3]
C#
Trzecia para: łepetyny wrzące
F#m
Gorętsze niż słońc tysiące
A
Sucha burza i kostucha
C#
Ich czerwony kur się słucha
F#m
Piekielny żar posyłają
A
Pomarańczowym gajom
E            F#m         Bm  F#m
Ludziom co o deszcz błagają
E            F#m       Bm C#
Ludziom co o deszcz błagają

[intro]
    F#m F#m F#m Bm
e|-----------------------|
B|-----------------------|
G|----4s6-4-6------------|
D|-------------4-6s7--6--|
A|-----------------------|
E|-----------------------|
   F#m  F#m F#m  Bm
e|-----------------------|
B|-----------------------|
G|----4s6-4-6------4-----|
D|-4-----------6-7---6---|
A|-----------------------|
E|-----------------------|
   F#m  F#m F#m  Bm
e|-----------------------|
B|-----------------------|
G|----4s6-4-6------------|
D|-4-----------4-6s7--6--|
A|-----------------------|
E|-----------------------|
   F#m  F#m F#m  Bm
e|-----------------------|
B|-----------------------|
G|----4s6-4-6------4-----|
D|-4-----------6-7---6---|
A|-----------------------|
E|-----------------------|

[verse 4]
C#
Czwarta para: byk i panna
F#m
Ich ślepe sługi w sutannach
A
Ludzie w twardej skale kuli
C#
Kościół co miał łeb z cebuli
F#m
Sługi czary poczynili
A
Nocą krzyże zamienili
E              F#m      Bm  F#m
Ludziom co się doń modlili
E              F#m    Bm C#
Ludziom co się doń modlili
C#

[chorus]
F#m       F#m
Koszmary, koszmary
F#m      Bm
Następne 4 pary
F#m       F#m
Koszmary, koszmary
F#m      Bm
Następne 4 pary
F#m       F#m
Koszmary, koszmary
F#m      Bm
Następne 4 pary
F#m       F#m
Koszmary, koszmary
F#m      Bm
Następne 4 pary

[outro]
F#m       F#m
Łan nana, łan nana
F#m      Bm
Następne 4 pary
F#m       F#m
Łan nana, łan nana
F#m      Bm
Następne 4 pary
F#m       F#m
Łan nana, łan nana
F#m      Bm
Następne 4 pary
F#m       F#m
Łan nana, łan nana
F#m          Bm             F#m
Już skrzypią drzwi pieczary

enjoy!
Добавлено: 24.05.2016
Другие материалы по этой песне:
  • Аккорды и текст

Страница создана 24.05.2016
http://primanota.ru/pidzama-porno/koszmarow-4-pary-chords.htm
Привет, Гость.
Предлагаем пройти революционный курс по гитаре.
Подарок от PrimaNota.Ru, забирай!